Muerti

piesne (3)

  texty (0) / preklady (0)
  akordy (2) / taby (1)
  noty (0) / slideshow (0)

články (0)
fotogaléria
diskusia
videá
diskografia
v obchode
odkazy
koncerty
sťahuj



pridaj vlastný článok

Muerti:
Tradiční Kids and Heroes Punkrock Xmas se rozjedou hned do čtyř měst - tradiční Kids And Heroes Punkrock Xmas musí stát za to.Minulý rok se Kids and Heroes... - musiczone.cz


 

Muerti

Fanúšikov: 0



A B C Č D E F G H CH I J K L Ľ M N O P Q R S Š T U V W X Y Z Ž



ako:
Muerti - Vrásky a lásky
Muerti - Vrásky a lásky

tlač

edituj

export
agama

export
txt
Pesničku videlo 324 návštevníkov.

Kvalita akordov : bez hodnotenia
Hodnotilo ľudí: 0 ohodnoť aj ty
Prispievateľ:

Tlachy
Transpozícia:   [+1 +2 -1 -2]
kytara 1 - intro + refrén i sólo:
D5 F#5 H5 A5
E|---------------------------------------------------------
B|---------------------------------------------------------
G|-7-----------------------------4-------------------------
D|-7--------------4--------------4-------------7-----------
A|-5--------------4--------------2-------------7-----------
E|----------------2----------------------------5-----------

Kytara 2 - Intro:
E|---------------------------------------------------------
B|-7------------7-5------------5-3------------3-2---2-3--5-
G|----7-------7------6-------6------4-------4--------------
D|-------7--7-----------8--8-----------4--4----------------
A|---------------------------------------------------------
E|---------------------------------------------------------

E|---------------------------------------------------------
B|-7------------7-5------------5-3------------3-2-22333555-
G|----7-------7------6-------6------4-------4--------------
D|-------7--7-----------8--8-----------4--4----------------
A|---------------------------------------------------------
E|---------------------------------------------------------

E|---------------------------------------------------------
B|-77-----------7755-----------5533-----------332-22333555-
G|----77------77-----66------66-----44------44-------------
D|-------7--77----------8--88----------4--44---------------
A|---------------------------------------------------------
E|---------------------------------------------------------

E|---------------------------------------------------------
B|-77-----------7755-----------5533-----------332----------
G|----77------77-----66------66-----44------44-------------
D|-------7--77----------8--88----------4--44---------------
A|---------------------------------------------------------
E|---------------------------------------------------------

kytara 1 - sloka
D5 F#5 G A5
E|---------------------------------------------------------
B|---------------------------------------------------------
G|-7-------------------------------------------------------
D|-7--------------4--------------5-------------7-----------
A|-5--------------4--------------5-------------7-----------
E|----------------2--------------3-------------5-----------

1) DPod maskou chuligána F#skrývám svou pravou tvář
GVýčitky, strach a slzy Aukrývám pod polštář
DMám rád tu krutou masku, F#co všechny odradí
GBez ní se cítím nesvůj, Atvář všechno prozradí

R)DPod svoje masky F#skrejváme vrásky Ha tajný lásky
AVrásky a lásky
DPod svoje masky F#skrejváme vrásky Ha tajný lásky
AVrásky a lásky

2) Dávám si dobrej pozor, abych byl vždycky sám
Když občas masku sundám, chci zůstat nepoznán
Vím, že to není správný a k lidem kolem fér
Já chci svou duší chránit a nechci nosit kvér

R)Pod svoje masky skrejváme vrásky a tajný lásky
Vrásky a lásky
Pod svoje masky skrejváme vrásky a tajný lásky
Vrásky a lásky

kytara 1 - D, F#, H, A
kytara 2:
E|---------------------------------------------------------
B|-77-----------7755-----------5533-----------332-22333555-
G|----77------77-----66------66-----44------44-------------
D|-------7--77----------8--88----------4--44---------------
A|---------------------------------------------------------
E|---------------------------------------------------------

E|---------------------------------------------------------
B|-77-----------7755-----------5533-----------332----------
G|----77------77-----66------66-----44------44-------------
D|-------7--77----------8--88----------4--44---------------
A|---------------------------------------------------------
E|---------------------------------------------------------

3) Víš dobře o čem mluvim, i ty svou masku máš
Ty jí říkáš, že je oukej, piješ rum na kuráž
Masky jsou naše spása i naše prokletí
Žít bez nich dávno nejde, jsme jejich obětí

R)Pod svoje masky skrejváme vrásky a tajný lásky
Vrásky a lásky
Pod svoje masky skrejváme vrásky a tajný lásky
Vrásky a lásky

kytara 1 - D, F#, H, A
kytara 2:
E|----------------------------------------------------------------
B|----------------------------------------------------------------
G|-7-7----7-9-9----9-11-11-12--11---6-6-6----5-6-6----6-9-9--11-9-
D|----------------------------------------------------------------
A|-5-5----5-7-7----7-9--9--10--9----4-4-4----4-5-5----5-7-7--9--7-
E|----------------------------------------------------------------

E|------------------------------------------------------------------
B|------------------------------------------------------------------
G|---4-4-4----4-6-6----6-7-7--9----9----11-11-11-...-11-9-9-9-...-9-
D|------------------------------------------------------------------
A|---2-2-2----2-4-4----4-5-5--7----7----9--9--9--...-9--7-7-7-...-7-
E|------------------------------------------------------------------

E|----------------------------------------------------------------
B|----------------------------------------------------------------
G|-7-7----7-9-9----9-11-11-12--11---6-6-6----5-6-6----6-9-9--11-9-
D|----------------------------------------------------------------
A|-5-5----5-7-7----7-9--9--10--9----4-4-4----4-5-5----5-7-7--9--7-
E|----------------------------------------------------------------

E|-------------------------------------------------
B|-------------------------------------------------
G|-14-14-14-14-14-14-14-14-14-14-14-14-14-14-14-14-
D|-------------------------------------------------
A|-12-12-12-12-12-12-12-12-12-12-12-12-12-12-12-12-
E|-------------------------------------------------

R)Pod svoje masky skrejváme vrásky a tajný lásky
Vrásky a lásky
E|----------------------------------------------------------------
B|----------------------------------------------------------------
G|-7-7----7-9-9----9-11-11-12--11---6-6-6----5-6-6----6-9-9--11-9-
D|----------------------------------------------------------------
A|-5-5----5-7-7----7-9--9--10--9----4-4-4----4-5-5----5-7-7--9--7-
E|----------------------------------------------------------------

E|------------------------------------------------------------------
B|------------------------------------------------------------------
G|---4-4-4----4-6-6----6-7-7--9----9----11-11-11-...-11-9-9-9-...-9-
D|------------------------------------------------------------------
A|---2-2-2----2-4-4----4-5-5--7----7----9--9--9--...-9--7-7-7-...-7-
E|------------------------------------------------------------------
Pod svoje masky skrejváme vrásky a tajný lásky
Vrásky a lásky
E|----------------------------------------------------------------
B|----------------------------------------------------------------
G|-7-7----7-9-9----9-11-11-12--11---6-6-6----5-6-6----6-9-9--11-9-
D|----------------------------------------------------------------
A|-5-5----5-7-7----7-9--9--10--9----4-4-4----4-5-5----5-7-7--9--7-
E|----------------------------------------------------------------

E|-------------------------------------------------
B|-------------------------------------------------
G|-14-14-14-14-14-14-14-14-14-14-14-14-14-14-14-14-
D|-------------------------------------------------
A|-12-12-12-12-12-12-12-12-12-12-12-12-12-12-12-12-
E|-------------------------------------------------

4) DPod maskou chuligána F#skrývám svou pravou tvář
HVýčitky, strach a slzy Aukrývám pod polštář
E|---------------------------------------------------------
B|-77-----------7755-----------5533-----------332-22333555-
G|----77------77-----66------66-----44------44-------------
D|-------7--77----------8--88----------4--44---------------
A|---------------------------------------------------------
E|---------------------------------------------------------

DMám rád tu krutou masku, F#co všechny odradí
HBez ní se cítím nesvůj, Atvář všechno prozradí
E|---------------------------------------------------------
B|-77-----------7755-----------5533-----------332-3h5p3....
G|----77------77-----66------66-----44------44-------------
D|-------7--77----------8--88----------4--44---------------
A|---------------------------------------------------------
E|---------------------------------------------------------

------------------------------------------------------------
By: TT
případné námitky, připomínky, stížnosti mi
napište na e-mail: tluchor.t@seznam.cz




 
»
Tvoje obľúbené položky
Tvoje obľúbené položky
»
Nové albumy interpreta
Nové albumy interpreta
6

»
Najnovšie videá
Najnovšie videá

Muerti - Vrsky a lsky

Muerti - Vrsky a lsky - Fest Pod Parou

Muerti - Vrsky a lsky

Muerty - Vrsky a lsky

Muerti-Vrsky a lsky live Matrix 16.12.

Muerti - Vrsky a lsky
»
Akordové schémy
Akordové schémy
»
Najnavštevovanejšie piesne
Najnavštevovanejšie piesne



home | interpreti | register piesní | cd & dvd shop | pripomienky/nápady | kontakt | ochrana údajov | inzercia

TOPlist