ElevenHill

piesne (1)

  texty (0) / preklady (0)
  akordy (0) / taby (1)
  noty (0) / slideshow (0)

články (0)
fotogaléria
diskusia
videá
diskografia
v obchode
odkazy
koncerty
sťahuj



pridaj vlastný článok

ElevenHill:
Neuveríte, že sú zo Slovenska! Pozrite si prvý videoklip Prešovčanov ElevenHill - 30.03.2016 - 16:00 | Patrik Marflák Málokedy sa stane, že novovzniknutá kapela, ktorá ... - zoznam.sk


 

Elevenhill

Fanúšikov: 0



A B C Č D E F G H CH I J K L Ľ M N O P Q R S Š T U V W X Y Z Ž



ako:
Elevenhill - Room of ghosts
Elevenhill - Room of ghosts

tlač

edituj
Pesničku videlo 1437 návštevníkov.

Kvalita tabov :
Hodnotilo ľudí: 1 ohodnoť aj ty
Prispievateľ:

LukasV

Room of ghosts

Ami - 002210
C - 032010
G - 320033
F - 033210

Intro
Ami
D U D U D U D U (smer pravej ruky (up/down))
1 2 3 4
e|-------0----------------|
B|-------1----------------|
G|-2--2--2--2--2--2--2--2-|
D|-2--2--2--2--2--2--2--2-|
A|-0--0-----0--3--0--X--0-|
E|-X--X-----X--X--X--3--X-|
(X na E - tlmíme palcom, X na A - tlmíme malíčkom pri stláčaní E na 3)

Ami C
Mom used to ask,
G F Ami
Where are you going, will you come?
Ami C G F
Remembering the days when I was young,
Ami
so it's gone...

F Ami
Look at my face, in the room of ghosts,
G F
is this the way that we live today?
F Ami
Look at my face, in the room of ghosts,
G F
like a stranger‘s so far away,
A
in the room of ghosts...

(el. gitara)
1 2 3 4 1 2 3 4 1 2 3 4 1 2 3 4
e|------------------------------------------------|
B|------------------------------------------------|
G|------------------------------------------------|
D|-2-----------------------2----------------------|
A|-0--------0--3-p0-----0--0--------0-----------0-|
E|-------------------3-----------------3-p0-3-----|


Where are the
days I spent with
friends?
(el. gitara) stay
1 2 3 4 1 2 3 4 1 2 3 4 1 2 3 4
e|-------------------------------5-----3----------|
B|-------------------------------3-----1----------|
G|----------0--------0-----------4-----2----------|
D|-------2----------------/5----------------------|
A|-0-----------3----------------------------------|
E|------------------------------------------------|



a-part...
1 2 3 4 1 2 3 4 1 2 3 4 1 2 3 4
e|------------------------------------------------|
B|------------------------------------------------|
G|------------------------------------------------|
D|-2-----------------------2----------------------|
A|-0--------0--3-p0-----0--0--------0-----------0-|
E|-------------------3-----------------3-p0-3-----|

Those special
times falling in
lo-ve being
1 2 3 4 1 2 3 4 1 2 3 4 1 2 3 4
e|-------------------------------3-----1----------|
B|-------------------------------3-----1----------|
G|----------0--------0-----------4-----2----------|
D|-------2----------------/5----------------------|
A|-0-----------3----------------------------------|
E|------------------------------------------------|



relieved ...
1 2 3 4 1 2 3 4 1 2 3 4 1 2 3 4
e|------------------------------------------------|
B|------------------------------------------------|
G|------------------------------------------------|
D|-2-----------------------2----------------------|
A|-0--------0--3-p0-----0--0--------0-----------0-|
E|-------------------3-----------------3-p0-3-----|

Look at
my face in the room
of ghosts,
1 2 3 4 1 2 3 4 1 2 3 4 1 2 3 4
e|----------------------------------3-p0----------|
B|----------------------------------------3-------|
G|(2)----------------------------------------5----|
D|(3)----------------------2----------------------|
A|(3)----------------------0----------------------|
E|------------------------------------------------|

is this the
way that we
live today?
1 2 3 4 1 2 3 4 1 2 3 4 1 2 3 4
e|----------5-----3-----------3-p1----------------|
B|-------------------3-----1--------3-------------|
G|-------------------------2----------------------|
D|/5-----------------------3----------------------|
A|------------------------------------------------|
E|------------------------------------------------|

Look at
my face in the room
of ghosts,
1 2 3 4 1 2 3 4 1 2 3 4 1 2 3 4
e|----------------------------------0-------------|
B|-1-----------------------------------1----------|
G|-2--------------------------------------2-------|
D|-3-----------------------2----------------------|
A|-3-----------------------0----------------------|
E|------------------------------------------------|

like a
stranger's
so far away,
1 2 3 4 1 2 3 4 1 2 3 4 1 2 3 4
e|----------3--------------3----------------------|
B|----------------3--------1----------------------|
G|-------------------4-----2----------------------|
D|/5-----------------------3----------------------|
A|------------------------------------------------|
E|------------------------------------------------|



in the room of ghosts...
1 2 3 4 1 2 3 4 1 2 3 4 1 2 3 4
e|------------------------------------------------|
B|------------------------------------------------|
G|------------------------------------------------|
D|-------------------------2----------------------|
A|-------------------------0--------0--3-p0-----0-|
E|-------------------------------------------3----| etc

How can I break?
What is unbreakable?
Where are those songs,
I'm singing in my head?
Now gone...
Look at my face in the room of ghosts,
is this the way that we live today?
Look at my face in the room of ghosts,
like a stranger's so far away,
in the room of ghosts...
5x /: In the room of ghosts:/

Solo

1 2 3 4 1 2 3 4 1 2 3 4 1 2 3 4 1 2 3 4
e|------------|------------------------------------------------|
B|------------|------------------------------------------------|
G|/5----/7----|/9----------------------/7----------------------|
D|------------|------------------------------------------------|
A|------------|------------------------------------------------|
E|------------|------------------------------------------------|

1 2 3 4 1 2 3 4 1 2 3 4 1 2 3 4
e|------------------------------------------------|
B|------------------------------------------------|
G|/5----------------------------------/5----/7----|
D|------------------------------------------------|
A|------------------------------------------------|
E|------------------------------------------------|

1 2 3 4 1 2 3 4 1 2 3 4 1 2 3 4
e|------------------------------------------------|
B|------------------------------------------------|
G|/9-------------------/12------------------------|
D|------------------------------------------------|
A|------------------------------------------------|
E|------------------------------------------------|

1 2 3 4 1 2 3 4 1 2 3 4 1 2 3 4
e|------------------------------------------------|
B|------------------------------------------------|
G|/14-------14------------------------/5----/7----|
D|------------------------------------------------|
A|------------------------------------------------|
E|------------------------------------------------|

1 2 3 4 1 2 3 4 1 2 3 4 1 2 3 4
e|------------------------------------------------|
B|------------------------------------------------|
G|/9----------------------/7-----------------7-/9-|
D|------------------------------------------------|
A|------------------------------------------------|
E|------------------------------------------------|

1 2 3 4 1 2 3 4 1 2 3 4 1 2 3 4
e|------------------------------------------------|
B|------------------------------------------------|
G|/7-\5-------------------------------/5----/7----|
D|-------5-/7-------------------------------------|
A|------------------------------------------------|
E|------------------------------------------------|

1 2 3 4 1 2 3 4 1 2 3 4 1 2 3 4
e|------------------------------------------------|
B|----------------------------------12---\8-------|
G|/9----------------------/12---------------------|
D|------------------------------------------------|
A|------------------------------------------------|
E|------------------------------------------------|

1 2 3 4 1 2 3 4 1 2 3 4 1 2 3 4
e|------------------------------------------------|
B|------------------------------------------------|
G|-12/14----14------------------------/5----/7----|
D|------------------------------------------------|
A|------------------------------------------------|
E|------------------------------------------------|

1 2 3 4 1 2 3 4 1 2 3 4 1 2 3 4
e|------------------------------------------------|
B|------------------------------------------------|
G|/9----------------------/7----------------------|
D|------------------------------------------------|
A|------------------------------------------------|
E|------------------------------------------------|

1 2 3 4 1 2 3 4 1 2 3 4 1 2 3 4
e|------------------------------------------------|
B|------------------------------------------------|
G|/5----------------------------------/5----/7----|
D|------------------------------------------------|
A|------------------------------------------------|
E|------------------------------------------------|

1 2 3 4 1 2 3 4 1 2 3 4 1 2 3 4
e|------------------------------------------------|
B|------------------------------------------------|
G|/9----------------------/7-----------------7-/9-|
D|------------------------------------------------|
A|------------------------------------------------|
E|------------------------------------------------|

1 2 3 4 1 2 3 4 1 2 3 4 1 2 3 4
e|------------------------------------------------|
B|------------------------------------------------|
G|/7-\5-------------------------------------------|
D|-------5-/7-------------------------------------|
A|------------------------------------------------|
E|------------------------------------------------|

 
»
Tvoje obľúbené položky
Tvoje obľúbené položky
»
Nové albumy interpreta
Nové albumy interpreta

»
Najnovšie videá
Najnovšie videá

ElevenHill - Room Of Ghosts (Dudo Rmx) +

ElevenHill - Room Of Ghosts (Expres Live

Multifandom; Room of Ghosts /COLLAB/

ElevenHill - Sad lovers dreams

Ultimate Song Contest(Edition 1)-Bleseis

Königsjodler & Lesser Alpin via ferrata
»
Najnavštevovanejšie piesne
Najnavštevovanejšie piesne



home | interpreti | register piesní | cd & dvd shop | pripomienky/nápady | kontakt | ochrana údajov | inzercia
Copyright © Pavol Bacigál, 2000-2017. Všetky práva vyhradené.
TOPlist