Richard Müller

piesne (241)

  texty (203) / preklady (1)
  akordy (109) / taby (17)
  noty (3) / slideshow (1)

články (505)
fotogaléria
diskusia
videá
diskografia
v obchode
odkazy
koncerty
sťahuj



pridaj vlastný článok

Richard Müller:
Dcéra Richarda Müllera Ema: Pozrite sa, čo sa jej podarilo v Paríži - včera Topstar.sk Hudba EMBED KÓD Jediná dcéra slovenského speváka Richarda Müllera p...


Richard Müller:
Richard Müller ako Nespoznaný prichádza do kín po celom Slovensku - V snímke vystupujú aj viaceré osobnosti slovenského a českého šoubiznisu ako napríklad ... - music-zone.eu


Richard Müller:
Tajemství fyzické metamorfózy Richarda Müllera. Prý je to velmi prosté - 8. října 2016 16:55 Richard Müller (55) se vrací na hudební scénu. Nedávno za přítomnost... - super.cz


Michal Horáček:
Horáček a Müller: Písně o ženách, které jsme neměli - Je to bezmála třicet let, co Richard Müller nazpíval několik textů Michala Horáčka na leg... - tyden.cz


Richard Müller:
Richard Müller oslávil 55-ku výrazne schudnutý: Prísne pravidlá v životnom
štýle!
- Richard Müller oslávil 55-ku výrazne schudnutý: Prísne pravidlá v životnom štýle!" href="... - cas.sk


Richard Müller:
Pozvánka RICHARD MÜLLER: TO NAJLEPŠIE TOUR 2016 - neděle, 02 říjen 2016 07:00 Napsal(a) Eva Makovská velikost písma zmenšit velikost písm... - musicweb.cz


Richard Müller:
FOTO: RICHARD MÜLLER - KŘEST CD, SASAZU, 29.9.2016 DOPORUČENÝ - čtvrtek, 29 září 2016 22:51 Napsal(a) Eva Makovská velikost písma zmenšit velikost písm... - musicweb.cz


Richard Müller:
Richard Müller oslavoval. Z torty sfúkol 55 sviečok - včera Topstar.sk Showbiznis Richard Müller oslavoval. Z torty sfúkol 55 sviečok OSTAT... - noviny.sk


Richard Müller:
Richard Müller interview: Album 55 je můj Sgt. Pepper's, pokřtí mi ho budoucí
prezident
- Vydáno před 2 hodinami | autor: Hana Bukáčková Richard Müller před pár dny oslavil... - ireport.cz


Richard Müller:
Richard Müller slaví narozeniny povedenou deskou "55" - Vydáno: 22.09.2016 19:11 v sekci Recenze - Jiří V. Matýsek Enfant terrible česko-slovens... - musicserver.cz


 

Richard Müller

Fanúšikov: 53



A B C Č D E F G H CH I J K L Ľ M N O P Q R S Š T U V W X Y Z Ž



ako:
Richard Müller - Milovanie v daždi
Richard Müller - Milovanie v daždi

tlač

edituj
Pesničku videlo 1346 návštevníkov.

Kvalita tabov :
Hodnotilo ľudí: 1 ohodnoť aj ty
Prispievateľ:

LukasV

Intro

Ami
e|---3---3---3---3---2--------2-----1---1---1---1---0--------0----|
B|---5---5---5---5---3--------------3---3---3---3---1-------------|
G|----------------------2--2----2----------------------2--2----2--|
D|----------------------------------------------------------------|
A|-0------------------------------0-------------------------------|
E|----------------------------------------------------------------|

Dmi Emi F Dmi (C) E
e|-------------------------------------------------1---1----------|
B|-------3----------------0--------------1-----1---3---3--1--0----|
G|----------------------0----0-----------2-----2-----2----0--1----|
D|---3-------3------2----------2-----3------3------0--------------|
A|-5------------------------------------------------------3--2----|
E|---------------0----------------1-------------------------------|

Ami
e|---3---3---3---3---2--------2-----1---1---1---1---0--------0----|
B|---5---5---5---5---3--------------3---3---3---3---1-------------|
G|----------------------2--2----2----------------------2--2----2--|
D|----------------------------------------------------------------|
A|-0------------------------------0-------------------------------|
E|----------------------------------------------------------------|

Dmi Emi F Dmi (C) E
e|----------------------------------------------------------------|
B|-------3----------------0-------------1------3------------1-----|
G|----------------------0----0----------2-------------2---2---2---|
D|---3-------3------2----------2-----2-----2/4------2---2-------2-|
A|-5------------------------------0---------------0---------------|
E|---------------0------------------------------------------------|

Verzia

Ami D Dmi Ami
Slnko me -dzi mrakmi deba -tu -je s vtákmi
e|---3---3---3---3---2--------2-----1---1---1---1---0--------0----|
B|---5---5---5---5---3--------------3---3---3---3---1-------------|
G|----------------------2--2----2----------------------2--2----2--|
D|----------------------------------------------------------------|
A|-0------------------------------0-------------------------------|
E|----------------------------------------------------------------|

Dmi Emi F Dmi (C) E
O tom či dnes bu-de dážď
e|-------------------------------------------------1---1----------|
B|-------3----------------0--------------1-----1---3---3--1--0----|
G|----------------------0----0-----------2-----2-----2----0--1----|
D|---3-------3------2----------2-----3------3------0--------------|
A|-5------------------------------------------------------3--2----|
E|---------------0----------------1-------------------------------|

Ami D Dmi Ami
Načer-pať chce si-lu si oddýchnuť na chví-ľu
e|---3---3---3---3---2--------2-----1---1---1---1---0--------0----|
B|---5---5---5---5---3--------------3---3---3---3---1-------------|
G|----------------------2--2----2----------------------2--2----2--|
D|----------------------------------------------------------------|
A|-0------------------------------0-------------------------------|
E|----------------------------------------------------------------|

Dmi Emi Ami
Nevrav že to ne -po -znáš
e|-----------------------------------------------------0----------|
B|-------3----------------0-------------1-------3--3h5---5---1----|
G|----------------------0----0----------------------------------2-|
D|---3-------3------2----------2-----2----2/4---------------------|
A|-5------------------------------0----------------0--------------|
E|---------------0------------------------------------------------|

Ami D Dmi Ami
S dažďom v tvojej tvári ti pribudne na oltá -ri
e|---3---3---3---3---2--------2-----1---1---1---1---0--------0----|
B|---5---5---5---5---3--------------3---3---3---3---1-------------|
G|----------------------2--2----2----------------------2--2----2--|
D|----------------------------------------------------------------|
A|-0------------------------------0-------------------------------|
E|----------------------------------------------------------------|

Dmi Emi F Dmi (C) E
Jeden ďalší krásny hriech
e|-------------------------------------------------1---1----------|
B|-------3----------------0--------------1-----1---3---3--1--0----|
G|----------------------0----0-----------2-----2-----2----0--1----|
D|---3-------3------2----------2-----3------3------0--------------|
A|-5------------------------------------------------------3--2----|
E|---------------0----------------1-------------------------------|

Ami D Dmi Ami
Milo -va -nie v daždi túžbu vo mne drá-ždi
e|---3---3---3---3---2--------2-----1---1---1---1---0--------0----|
B|---5---5---5---5---3--------------3---3---3---3---1-------------|
G|----------------------2--2----2----------------------2--2----2--|
D|----------------------------------------------------------------|
A|-0------------------------------0-------------------------------|
E|----------------------------------------------------------------|

Dmi Emi Ami
o tom každý básnik vie
e|----------------------------------------------------0-0---------|
B|-------3----------------0------------1------3--3h5--------1-----|
G|----------------------0----0--------2-------------------2---2---|
D|---3-------3------2----------2-----2----2/4-------------------2-|
A|-5------------------------------0-------------------------------|
E|---------------0------------------------------------------------|

Refrén
F Ami
Si dnes
mokrá ako myš Na vodu
e|------------------------10-8-------------------------------0---------|
B|----------------6-----8------10---------------1----3-----5-------5---|
G|--------2-----5---5/7-----------10----------0------------------------|
D|------3---3/7----------------------10\----2----2/4---4/5-------5---5-|
A|----3----------------------------------0---------------------0-------|
E|-1-------------------------------------------------------------------|

F E
hádam nemy-slíš
e|------------------5-8---8-8---------------0-------0---0--------------|
B|--------1-------6-------5-5-------------0-------0---5----------------|
G|------2-------5-------5-----5---------1-----2/4----------------------|
D|----3-----3/7-----------------7--------------------------------------|
A|---------------------------------------------------------------------|
E|-1---------------------------------0---------------------------------|

F Dmi
Keď Rozpú-šťa
dážď sa i -ba
ťa hľadí mo-krou cu-kor
ru-kou
e|-8--7--5--3--1---------------5--3--1--------------------|
B|-10-8--6--5--3--5--3--1------6--5--3--5--3--1-----------|
G|----------------5--4--3---------------5--4--3--4--2-----|
D|-----------------------------------------------5--2-----|
A|--------------------------------------------------------|
E|--------------------------------------------------------|

E Ami 004430
A o -ko-lo nás je tlako-vá níž...
e|---------------------0--0-----0--------0---------0------|
B|---------------------------3--------1-----3----3--------|
G|-4--4--4-------------------------------------4----------|
D|----------2----------------------2----------------------|
A|------------------------------0-----------0-------------|
E|--------------------------------------------------------|

F Dmi
e|-8--7--5--3--1---------------5--3--1--------------------|
B|-10-8--6--5--3--5--3--1------6--5--3--5--3--1-----------|
G|----------------5--4--3---------------5--4--3--4--2-----|
D|-----------------------------------------------5--2-----|
A|--------------------------------------------------------|
E|--------------------------------------------------------|

E Ami 004430 Ami Emi
e|---------------------0--0--------------0------0-----0-----1-----0-----0--|
B|---------------------------3-/5------1-------3----3------1----1------0---|
G|-4--4--4------------------------------------4---4-------2---2-------1----|
D|----------2----------------------2---------4-----------2-----------2-----|
A|------------------------------0-----------0-----------0-----------2------|
E|-------------------------------------------------------------------------|

Solo niekedy na budúce :-)

 
»
Tvoje obľúbené položky
Tvoje obľúbené položky
»
Nové albumy interpreta
Nové albumy interpreta
2xVINYL Muller Richard 55 [vinyl]
2xVINYL 55 [vinyl]
CD Muller Richard 55
CD 55
VINYL Muller Richard Socialni sit [vinyl]
VINYL Socialni sit
[vinyl]
2xVINYL Muller Richard 01 [vinyl]
2xVINYL 01 [vinyl]
CD Planety Planety
CD Planety
CD Muller Richard Socialni sit
CD Socialni sit

»
Najnovšie videá
Najnovšie videá

Richard Müller 5/22 - Milovanie v daždi

jaroslav Filip a Richard Müller Milovani

Richard Muller - Milovanie v dazdi (poma

Richard Muller & Fragile - Tlaková níž &

Milovanie v daždi - Richard Müller

Richard Muller & Fragile - Milovanie v d
»
Najnavštevovanejšie piesne
Najnavštevovanejšie piesne
Julia Roberts - akordy

Srdce jako kníže Rohan - akordy a text

Nebude to ľahké - akordy a text

Baroko - akordy a text

Klid, mír a pokora - akordy a text

Spočítaj ma - akordy a text

Cigaretka na 2 ťahy - akordy a text

Po schodoch - akordy a text

Nahý II - akordy a text

Klid, mír a pokora - text

viac




home | interpreti | register piesní | cd & dvd shop | pripomienky/nápady | kontakt | ochrana údajov | inzercia
Copyright © Pavol Bacigál, 2000-2017. Všetky práva vyhradené.
TOPlist