Citron

piesne (32)

  texty (27) / preklady (0)
  akordy (11) / taby (3)
  noty (0) / slideshow (0)

články (13)
fotogaléria
diskusia
videá
diskografia
v obchode
odkazy
koncerty
sťahuj



pridaj vlastný článok

Citron:
CITRON a další rebelové hlásí vyprodání úvodního koncertu Souboj rebelů Radegast
Tour 2016! Vstupenky do Velkého Meziříčí se vyprodaly 10 dní před jeho konáním!
- 8 Listopad 2016 David Nguyen Žádné komentáře Novinky CITRON a další rebelové hlásí ... - rockandpop.cz


Apple Juice:
RATATA fest v Mostě obsadili Deviant, Apple Juice, Škwor a nakonec Citron - Vydáno včera Facebook11 Twitter0 Google+0 Další ročník mosteckého RATATA festu se u... - ireport.cz


Citron:
CITRON - Rebelie Vol. 2 (EP) - Podzimní turné obrozeného CITRONu skončilo sukcesem, který možná ne úplně všichni očekáva... - metalopolis.net


Citron:
Hádají se Citron, Support Lesbiens i další: Nejznámější rozkoly českých kapel
posledních deseti let
- Vydáno před 23 hodinami | autor: redakce Facebook7 Twitter0 Google+0 Máj je sice vním... - ireport.cz


Citron:
Rebelie rebelů úspěšně dobývá srdce rockových fanoušků - Radim Pařízek, Láďa Křížek, Tanja a další čili jarní turné kapely Citron začalo SKUPI... - denik.cz


Citron:
Citron s Láďou Křížkem odstartoval turné v Kadani - Vydáno před 8 hodinami Facebook319 Twitter0 Google+0 Legendární rocková kapela Citro... - ireport.cz


Citron:
ROCKBLOG: Na rozkolu v Citronu se najdou i pozitiva - 27. 09. 2015 | redakce Není to tak dávno, co média informovala o rozkolu v řadách sku... - ireport.cz


Citron:
Ostrava podruhé v plamenech: rozpálí ji Stratovarius, Citron i Freedom Call - /**/ více tiscali.cz ... - IREPORT


Citron:
Na festivalu Ostrava v plamenech vystoupí Pretty Maids a Citron - Na festivalu Ostrava v plamenech vystoupí Pretty Maids a Citron Vydáno: 21.04.2015 21:... - musicserver.cz


Arakain:
Hudební tipy 23. týden - Skupina Lucie 2014 autor: archiv zvětšit obrázek Setkání v hudbě Portrét sklad... - scena.cz


 

Citron

Fanúšikov: 6



A B C Č D E F G H CH I J K L Ľ M N O P Q R S Š T U V W X Y Z Ž



ako:
Citron - Už zase mi scházíš
Citron - Už zase mi scházíš

tlač

edituj
Pesničku videlo 2331 návštevníkov.

Kvalita tabov : bez hodnotenia
Hodnotilo ľudí: 0 ohodnoť aj ty
Prispievateľ:

Chosse

CITRON - Už zase mi scházíš

15b17r15 - vytažení a uvolnění struny

sólo 1
e|--------------------------------------------------------
h|-------------------------------------------15-13--------
g|--7-5------------8---8/10-10/12-12/14-14/15-----15-14---
D|-----8-7-5--5-8-5---------------------------------------
A|--------------------------------------------------------
E|--------------------------------------------------------

e|--------------------------------------------------------
h|--------------------------------13----------------------
g|--7-5------------8----15-14-12----15-14--------14-15-12-
D|-----8-7-5--5-8-5-------------15-------15-12-15---------
A|--------------------------------------------------------
E|--------------------------------------------------------

sloka (vybrnkávání)
e|---------------------------------|
h|---------------------------------|
g|-----3-------2-------3-------3---| 3X
D|---5---5---3---3---5---5---5---5-|
A|-5-------3-------5-------6-------|
E|---------------------------------|

e|-------------------------
h|-------------------------
g|-----5-------5-------3---
D|---7---5---7---5---5---5-
A|-8-------8-------5-------
E|-------------------------

kytara pod solo 2 (vybrnkávání)
e|---------------------------------|
h|---------------------------------|
g|-----3-------3-------3-------3---| 3X
D|---5---5---5---5---5---5---5---5-|
A|-5-------4-------3-------3-------|
E|---------------------------------|

e|-------------------------
h|-------------------------
g|-----3-------5-------3---
D|---5---5---7---5---5---5-
A|-6-------8-------5-------
E|-------------------------

solo 2
e|------------------------------
h|-11--11-13-11--11-------------
g|---14--------14--14-12-10-12--
D|------------------------------
A|------------------------------
E|------------------------------

e|------------------------------
h|-11--11-13-11--11-------------
g|---14--------14--14-12--------
D|----------------------12-13---
A|------------------------------
E|------------------------------

e|------------------------------
h|-11--11-13-11--11-------------
g|---14--------14--14-12-10-12--
D|------------------------------
A|------------------------------
E|------------------------------

e|------------------------------
h|-----------15-13-11--11-------
g|------12-15--------14--12-----
D|-12-13------------------------
A|------------------------------
E|------------------------------

ref.: B, F, C, G
B, F, G, G
B, F, C, G
B, F, C

kytara pod solo 3
e|---------------------------------|
h|---------------------------------|
g|-----3-------3-------3-------3---| 4X
D|---5---5---5---5---5---5---5---5-|
A|-5-------4-------3-------3-------|
E|---------------------------------|
ref.: B, F, C, G
B, F, G, G
B, F, C, G
B, F, C

solo 3
e|------------------------------------------------
h|------------------------------------------------
g|--------------------------3-5b7r5p3h5-----------
D|-5p4h5----5p4h5------5p4h5-------------5p4h5----
A|---------------4-3--------------------------4-3-
E|------------------------------------------------

e|------------------------------------
h|-----------------1-3-------------------
g|-0-2-3----3-3b5r3-3-3-----5b7-7r5p3-----
D|-----------------------------------5--
A|------------------------------------
E|----------------------1----------------

e|-------------------1-3--------------------------
h|---0-2-3----3-3b5r3-3-3-------------------------
g|-3-------------------------10b12b12r12p10-10-12-
D|------------------------------------------------
A|------------------------------------------------
E|------------------------1-----------------------

e|-----------------------------------------------------
h|---------------------------15----------20------------
g|-12-14-15-15b17r15-15b17r15--15---17b19--b19r17p15---
D|-------------------------------15-----------------17-
A|-----------------------------------------------------
E|-----------------------------------------------------

e|------------------------------------------------18----
h|----------------------------18b21-18b21----18b21--b21-
g|------14-15-14--17-15-14------------------------------
D|-15-17--------17--------15----------------------------
A|------------------------------------------------------
E|------------------------------------------------------


sola konec
e|------------------------------------------------
h|------------------------------------------------
g|--------------------------3-5b7r5p3h5-----------
D|-5p4h5----5p4h5------5p4h5-------------5p4h5----
A|---------------4-3------------------------------
E|------------------------------------------------

e|------------------------------
h|-11--11-13-11--11-------------
g|---14--------14--14-12-10-12--
D|------------------------------
A|------------------------------
E|------------------------------

e|------------------------------
h|-11--11-13-11--11-------------
g|---14--------14--14-12--------
D|----------------------12-13---
A|------------------------------
E|------------------------------

e|------------------------------
h|-11--11-13-11--11-------------
g|---14--------14--14-12-10-12--
D|------------------------------
A|------------------------------
E|------------------------------

e|------------------------------
h|-----------15-13-11--11-------
g|------12-15--------14--12-----
D|-12-13------------------------
A|------------------------------
E|------------------------------



 
»
Tvoje obľúbené položky
Tvoje obľúbené položky
»
Nové albumy interpreta
Nové albumy interpreta
CD Citron Rebelie rebelu
CD Rebelie rebelu
CD Citron Rebelie vol.2 (ep)
CD Rebelie vol.2
(ep)
CD Citron Rebelie vol.1 (ep)
CD Rebelie vol.1
(ep)
CD Citron Vypustte psi
CD Vypustte psi
CD Citron Jen si od plic zanadavej (1982-1985)
CD Jen si od plic
zanadavej
(1982-1985)
CD Citron Radegast [r,e]
CD Radegast [r,e]

»
Najnovšie videá
Najnovšie videá

Už zase mi scházíš


CITRON - Už zase mi scházíš

Citron - Už zase mi scházíš

LADiSLAV KŘíŽEK & CiTRON :: Už zase mi s

Citron-Už zase mi scházíš(Rebelie Rebelů
»
Najnavštevovanejšie piesne
Najnavštevovanejšie piesne
Už couvám - akordy a text

Bigbítový pánbů - akordy a text

Píseň ztracených - akordy

Vzpomínky - akordy a text

Už zase mi scházíš - taby

Už couvám - akordy a text

Už zase mi scháziš - akordy a text

V tu ránu - akordy a text

Revizor - akordy

Síla návratů - akordy a text

viac




home | interpreti | register piesní | cd & dvd shop | pripomienky/nápady | kontakt | ochrana údajov | inzercia
Copyright © Pavol Bacigál, 2000-2017. Všetky práva vyhradené.
TOPlist