Škwor

piesne (125)

  texty (101) / preklady (0)
  akordy (30) / taby (17)
  noty (0) / slideshow (0)

články (41)
fotogaléria
diskusia
videá
diskografia
v obchode
odkazy
koncerty
sťahuj



pridaj vlastný článok

Škwor:
Škvor oslaví plnoletost velkým koncertem - Škvor oslaví plnoletost velkým koncertem Autor: Iva Boková 03.10.2016 Tisk Věřte neb... - abradio.cz


Apple Juice:
RATATA fest v Mostě obsadili Deviant, Apple Juice, Škwor a nakonec Citron - Vydáno včera Facebook11 Twitter0 Google+0 Další ročník mosteckého RATATA festu se u... - ireport.cz


Škwor:
Historickou slavnost Barchan si naplno podmanili Škwor - Vydáno před 4 hodinami Facebook32 Twitter0 Google+0 Jemnickou čtyřdenní slavnost Ba... - ireport.cz


Rihanna:
TOP 6 videoklipů týdne (81.): Rihanna se nebojí erotiky, Škwor jsou vztahoví
poradci
- Vydáno včera | autor: David Stoklas Facebook52 Twitter0 Google+0 Klipy minulého týdne... - ireport.cz


Škwor:
ŠKWOR hlásí "Máme tu problém" - Půl roku po vydání nového řadového alba Hledání Identity jej Škwor připomínají třetím vid... - supraphon.cz


Škwor:
Nové album Škwor - Hledání Identity předznamenává singl a klip Kolikrát... - Naživo jej kapela představí na velkém podzimním turné Nové album Škwor už ... - rockmag.cz


Škwor:
Škwor na novém albu hledá IDentitu. Chystá se i na turné - /**/ více tiscali.cz ... - IREPORT


Škwor:
Škwor: živák z Incheby a nálet na Lucernu - /**/ více tisc... - IREPORT


Škwor:
Škwor - Poslouchej - Skupina Škwor přestavujeme nový singl "Poslouchej" z chystaného alba SLIBY & LŽI. Stejně ... - supraphononline


Škwor:
Škwor oslaví patnáct let velkým koncertem a novým albem - musicserv... - musicserver.cz


 

Škwor

Fanúšikov: 14



A B C Č D E F G H CH I J K L Ľ M N O P Q R S Š T U V W X Y Z Ž



ako:
Škwor - To jsem já
Škwor - To jsem já

tlač

edituj

export
agama

export
txt
Rok vzniku: 2013
Pesničku videlo 2317 návštevníkov.

Kvalita akordov : bez hodnotenia
Hodnotilo ľudí: 0 ohodnoť aj ty
Prispievateľ:

Dandys
Transpozícia:   [+1 +2 -1 -2]   *** Autor textu: Hrdlička *** Autor hudby: Hrdlička
2x
A#mi C# G#

e |--------------------------|--------------------------|--------------------------|

h |--------------------------|--------------------------|--------------------------|

G |--------------------------|----6---------------------|--------------------------|

D |----8---------------------|----6---------------------|----6---------------------|

A |----8---------------------|----4---------------------|----6---------------------|

E |----6---------------------|--------------------------|----4---------------------|

D#

e |--------------------------|

h |--------------------------|

G |----8---------------------|

D |----8---------------------|

A |----6---------------------|

E |--------------------------|


a
2x
F#mi C# G#

e |--------------------------|--------------------------|--------------------------|

h |--------------------------|--------------------------|--------------------------|

G |--------------------------|----6---------------------|--------------------------|

D |----4---------------------|----6---------------------|----6---------------------|

A |----4---------------------|----4---------------------|----6---------------------|

E |----2---------------------|--------------------------|----4---------------------|

D#

e |--------------------------|

h |--------------------------|

G |----8---------------------|

D |----8---------------------|

A |----6---------------------|

E |--------------------------|


-> pořád dokola, většina akordů je stejná střídá se pouze A#mi s F#mi, a to vždy na podruhé


Procitám do doby zrychlený
Přemejšlím, kam to ještě poletí
Často mám pocity smíšený, že patřím do jinýho století
Usínám, zdaj se mi divný sny
Začínaj v roce sedmdesáttři
Zamykám si svoje vzpomínky a zase hledám a hledám

Ref.:
To jsem já, maluju plány svý na bílej papír bílou křídou
To jsem já, co nikam nemusí a čeká až si pro něj příjdou
To jsem já, se všim už smířenej a napůl zaházenej hlínou
To jsem já, jako prach zvířenej, pomalu letí a sedá nocí línou

Připadám si nějak ztracenej
Nejradši zastavil bych čas
Dávno mám svůj osud sečtenej
Asi tak jako každej z vás
Srovnávám jaký to bylo dřív
Čemu jsem věřil, za co jsem stál
Tak se ptám, bylo hůř nebo líp
Zas mi to nedá, nedá

Ref.:
To jsem já, maluju plány svý na bílej papír bílou křídou
To jsem já, co nikam nemusí a čeká až si pro něj příjdou
To jsem já, se všim už smířenej a napůl zaházenej hlínou
To jsem já, jako prach zvířenej, pomalu letí a sedá nocí línou

 
»
Tvoje obľúbené položky
Tvoje obľúbené položky
»
Nové albumy interpreta
Nové albumy interpreta
CD Skwor Hledani identity
CD Hledani identity
2xCD+DVD Skwor Skwor - 15 let (live incheba arena 2013)
2xCD+DVD Skwor - 15 let
(live incheba
arena 2013)
2xCD Skwor Secteno podtrzeno
2xCD Secteno
podtrzeno
CD Skwor Vyhlasuju boj (spec. edice)
CD Vyhlasuju boj
(spec. edice)
CD Skwor Vyvolenej
CD Vyvolenej
CD Skwor Sliby a lzi
CD Sliby a lzi

»
Najnovšie videá
Najnovšie videá

Škwor - To jsem já (lyrics)

Škwor - To jsem já (Praha - Lucerna, 14.

Škwor - Sliby & Lži [ALBUM - 2013]

Škwor (14.11.2014 Praha, Lucerna) - To j

ŠKWOR - Celebrity, Ráno, To jsem já, - l

Škwor - To jsem já (Lucerna)
»
Akordové schémy
Akordové schémy
»
Najnavštevovanejšie piesne
Najnavštevovanejšie piesne



home | interpreti | register piesní | cd & dvd shop | pripomienky/nápady | kontakt | ochrana údajov | inzercia
Copyright © Pavol Bacigál, 2000-2017. Všetky práva vyhradené.
TOPlist