Mash

piesne (19)

  texty (17) / preklady (0)
  akordy (8) / taby (2)
  noty (0) / slideshow (0)

články (2)
fotogaléria
diskusia
videá
diskografia
v obchode
odkazy
koncerty
sťahuj



pridaj vlastný článok




 

Mash

Fanúšikov: 0



A B C Č D E F G H CH I J K L Ľ M N O P Q R S Š T U V W X Y Z Ž



ako:
Mash - Rider
Mash - Rider

tlač

edituj
Pesničku videlo 1899 návštevníkov.

Kvalita tabov : bez hodnotenia
Hodnotilo ľudí: 0 ohodnoť aj ty
Prispievateľ:

Chosse
Rider

solo
e|-----7-8-8-7---------------
h|8-10--------10-8-10-8-10---

e|-----7-8-8-7---------------
h|8-10--------10-8-10-10-8---

e|-8-8-7-------------7-------
h|------10-8-10-8-10--8------

e|-----7-8-8-7---------------
h|8-10--------10-8-10-8-10---

e|-----7-8-8-7---------------
h|8-10--------10-8-10-10-8---

e|-8-8-7-------------7-------
h|------10-8-10-8-10--8------

e|-10-7-10-7-----------------
h|-----8----8-8--------------

1.[G]Dvě stovky koní
pode[E]mnou dupou dál
[C]sám do spře[D]žení
je[G]ďábel zapřahal
v kapse pár drobnejch
co[E]Wyatt s Billym měl
[C]dostal jsem od nich[D]mapu
a[G]do světa jsem jel

solo
e|-----7-8-8-7---------------
h|8-10--------10-8-10-8-10---

e|-----7-8-8-7---------------
h|8-10--------10-8-10-10-8---

e|-8-8-7-------------7-------
h|------10-8-10-8-10--8------

e|-10-7-10-7-----------------
h|-----8----8-8--------------

2. U kraje cesty
sám mladej George stál
a bez starostí
hned za mě nasedal
silnice pálí
ten starej známej žár
když se to valí
do New Orleans dál

ref:[E]Zase cítím vítr[C]ve vlasech
[G]motory řvou a kví[Fis]lí
[E]snadno chytám[C]druhej dech
[G]na malou chví[Fis]li
[E]s pocitem, že mi[C]patří svět
[G]to ještě víc letí a[Fis]dává
[E]peklo skoro[C]na dohled
[C]už mávaj

E E E E E E C C C C C G Fis G
e|------------------------------------------------
h|------------------------------------------------
g|----------------------------5---5-5-5-5---------
D|-------2-2-2--------2-2-2---5---5-5-5-5-5---4-5-
A|-------2-2-2--------2-2-2---3---3-3-3-3-5---4-5-
E|-0-2-3-0-0-0--0-2-3-0-0-0---------------3---2-3-

E E E E E E C C C C C
e|------------------------------------------------
h|------------------------------------------------
g|----------------------------5---5-5-5-5---------
D|-------2-2-2--------2-2-2---3---3-3-3-3---------
A|-------2-2-2--------2-2-2---3---3-3-3-3---------
E|-0-2-3-0-0-0--0-2-3-0-0-0-----------------------

3. Je skoro ráno
a stepí vlk šel spát
než všichni vstanou
čas na cestu se dát
roztočit válce
čeká Wyatt i Bill
tam někde v dálce
je možná novej cíl

ref:


 
»
Tvoje obľúbené položky
Tvoje obľúbené položky
»
Nové albumy interpreta
Nové albumy interpreta
CD Mash Ougon no kisetsu
CD Ougon no kisetsu
CD Mashrou Leila Raasuk
CD Raasuk
VINYL Masha I Medvedi Solnzeklyosh [vinyl]
VINYL Solnzeklyosh
[vinyl]
BRD Mashayekhi N. Gozaran-time passing [bluray]
BRD Gozaran-time
passing [bluray]
DVD Mashayekhi N. Gozaran-time passing
DVD Gozaran-time
passing
CD Mash One day
CD One day

»
Najnovšie videá
Najnovšie videá

Billy Don Burns - Easy Rider Mash Up

Mach Rider Mash-Up (Original + SSBM)

99 MASH RIDER UTTARADIT

Low Milli Rider (Mash Up)

666 - Supadupa Chinatown (Dj Hlásznyik v

Back to the Future/Knight Rider Intro Ma
»
Najnavštevovanejšie piesne
Najnavštevovanejšie piesne
Rider - taby

Mám rád ty chvíle - sólo - taby

Kotel - akordy a text

Řádky mých snů - akordy a text

Proč Jenom Já - text

Řádky mých snů - text

Chtěla si víc - text

Proč jenom já - akordy a text

Poslední - text

Rybářská - akordy a text

viac




home | interpreti | register piesní | cd & dvd shop | pripomienky/nápady | kontakt | ochrana údajov | inzercia
Copyright © Pavol Bacigál, 2000-2017. Všetky práva vyhradené.
TOPlist