Zlokot

piesne (3)

  texty (2) / preklady (0)
  akordy (0) / taby (1)
  noty (0) / slideshow (0)

články (0)
fotogaléria
diskusia
videá
diskografia
v obchode
odkazy
koncerty
sťahuj



pridaj vlastný článok

Jaga Jazzist:
Jazzový festival Trnavský Jazzyk prinesie opäť svetovú i domácu špičku - Jazzový festival Trnavský Jazzyk prinesie opäť svetovú i domácu špičku ... - ahudba.sk


Zlokot:
Nový videoklip od skupiny Zlokot dáva skladbe Rauš filmový rozmer - Nový videoklip od skupiny Zlokot dáva skladbe Rauš filmový rozmer | Autor: Martina Mlc... - ahudba.sk


Zlokot:
Kapela Zlokot láka fanúšikov na svoje turné novým videoklipom - Kapela Zlokot láka fanúšikov na svoje turné novým videoklipom ... - ahudba.sk


Katarzia:
Festivalová párty vydavateľstva Slnko Records je za dveramiJ, zajrajú Zlokot,
Katarzia a ďalší
- Festivalová párty vydavateľstva Slnko Records je za dveramiJ, zajrajú Zlokot, Katarzia a ... - ahudba.sk


Zlokot:
Kapela Zlokot má po idiotovi už aj svojho génia - Kapela Zlokot má po idiotovi už aj svojho génia ... - ahudba.sk


Radio_head Awards:
Vypočujte si ako znie Slowakische Genius - Vypočujte si ako znie Slowakische Genius Jedna z najoriginálnejších slovenských sk... - sme.sk


Zlokot:
Zlokot říká Wu wej a po novém videu chystá i novou desku - Zlokot říká Wu wej a po novém videu chystá i novou desku V novom sin... - musiczone.cz


Zlokot:
Zlokot v novom videoklipe Wu wej hovorí, že život je lahodná zmija - Zlokot v novom videoklipe Wu wej hovorí, že život je lahodná zmija ... - ahudba.sk


Billy Barman:
Hlasovanie v rámci Radio_Head Awards sa začne 20. januára - Organizátori šiesteho ročníka hudobných Radio_Head Awards oznámili, že prvé kolo hlasovan...


Amo:
Rádio_FM ponúkne poslucháčom videozáznamy koncertov - Rádio_FM prináša svojim priaznivcom od júla videozáznamy koncertov slovenských kapiel, kt...


 

Zlokot

Fanúšikov: 0



A B C Č D E F G H CH I J K L Ľ M N O P Q R S Š T U V W X Y Z Ž



ako:
Zlokot - Rauš
Zlokot - Rauš

tlač

edituj
Rok vzniku: 2014
Pesničku videlo 1805 návštevníkov.

Kvalita tabov : bez hodnotenia
Hodnotilo ľudí: 0 ohodnoť aj ty
Prispievateľ:

elizion
Autor hudby: Zlokot

intro:

e|------------------------------------------------------------------
B|------------------------------------------------------------------
G|--------------------------------------------3---------------------
D|-3/5----7/3----3/5----7/3----3/5----7/3-------3---3---------------
A|-----5------3------5------3------5------3--1----------------------
E|------------------------------------------------1-----------------

sloha

e|------8-----8-------8-----8-------8-----8-------------------------
B|----------------------------------------------6-----8-------------
G|---------------------------------------------------0--------------
D|---8------8------8------8------8------8-----5-----7---------------
A|-10-10---8-8---10-10---8-8---10-10---8-8---6-6---8----------------
E|------------------------------------------------------------------


e|------------------------------------------------------------------
B|-8------------8--8------------8--8------------8------8------8-----
G|--10--------10----10--------10----10--------10-----10-----10------
D|----8------8--------8------8--------8------8------8------8--------
A|-----10--10----------10--10----------10--10-----10-----10---------
E|------------------------------------------------------------------

riff 1: tlmene 3x

e|------------------------------------------------------------------
B|------------------------------------------------------------------
G|---------------------------5/7------------------------------------
D|------8-7--8-7------8-7-------------------------------------------
A|-10-10---10---10-8-8---8-8----------------------------------------
E|------------------------------------------------------------------

e|------------------------------------------------------------------
B|--------------------------------13----13--------------------------
G|------------------------------------------------------------------
D|------10-----10--10-12-12-12-12----12-----------------------------
A|-13-13--13-13--13-------------------------------------------------
E|------------------------------------------------------------------

e|------------------------------------------------------------------
B|------------------------------------------------------------------
G|------------------------------------------------------------------
D|-----------------7-7-7-7-7-7-7-7-----------------5-5-5-5-5-5-5-5--
A|-5-5-5-5-5-5-5-5-----------------5-5-5-5-5-5-5-5------------------
E|------------------------------------------------------------------

e|------------------------------------------------------------------
B|------------------------------------------------------------------
G|-------------------------------------10---10---------14----14-----
D|-----------------7-7-7-7-7-7-7-7/8-8----8----8/12-12----12----12--
A|-5-5-5-5-5-5-5-5--------------------------------------------------
E|------------------------------------------------------------------

este raz intro a riff 1

solo: 3:53

e|------------------------------------------------------------------
B|-8-8-8--8-8-8--8-8-8--8p6--8-8-8--8-8-8--8-8-8--13~---------------
G|------------------------------------------------------------------
D|------------------------------------------------------------------
A|------------------------------------------------------------------
E|------------------------------------------------------------------

e|------------------------------------------------------------------
B|-8-8-8--8p6--8-8-8--8p6--8-8-8--8p6--8~/13~-----------------------
G|------------------------------------------------------------------
D|------------------------------------------------------------------
A|------------------------------------------------------------------
E|------------------------------------------------------------------

e|------------------------------------------------------------------
B|-8/6-6/3-3/1-1---8/6-6/3-3/1-1---8/6-6/3-3/1-1---8~/13~-----------
G|---------------3---------------3---------------3------------------
D|------------------------------------------------------------------
A|------------------------------------------------------------------
E|------------------------------------------------------------------


 
»
Tvoje obľúbené položky
Tvoje obľúbené položky
»
Nové albumy interpreta
Nové albumy interpreta
CD Zlokot Slowakische genius
CD Slowakische
genius
CD Zlokot Slowakische idiot
CD Slowakische
idiot

»
Najnovšie videá
Najnovšie videá

Zlokot - Rauš ( Stanica Záriečie 27.3. 2

ZLOKOT - Rauš @ RockScape 2015 - Banska

Zlokot- HR Kráľ

Zlokot: Wu wej

Zlokot: Slowakische genius

Zlokot - Wu wej (official video)
»
Najnavštevovanejšie piesne
Najnavštevovanejšie piesne
The Cure - text

Rauš - taby

Rauš - text




home | interpreti | register piesní | cd & dvd shop | pripomienky/nápady | kontakt | ochrana údajov | inzercia
Copyright © Pavol Bacigál, 2000-2017. Všetky práva vyhradené.
TOPlist