Rybičky 48

piesne (118)

  texty (94) / preklady (0)
  akordy (36) / taby (9)
  noty (0) / slideshow (0)

články (49)
fotogaléria
diskusia
videá
diskografia
v obchode
odkazy
koncerty
sťahuj



pridaj vlastný článok

Abraxas:
Votvírák – s novou vlnou předprodeje připlouvá i Pavol Habera & Team - 8 Duben 2017 David Nguyen Žádné komentáře Novinky Votvírák – s novou vlnou... - rockandpop.cz


Rybičky 48:
Rybičky 48 oslaví tisící koncert třemi speciálními vystoupeními - Rybičky 48 oslaví tisící koncert třemi speciálními vystoupeními Vydáno: 12.12... - musicserver.cz


Pekař:
VIDEO: Pekař a bubeník Ondřej Štorek z Rybiček 48 se našli. Začíná
jejich miniturné
- Vydáno před 13 hodinami | autor: Jaroslav Noska Facebook161 Twitter0 Google+0 Petr... - ireport.cz


Atmo Music:
Okoř se šťávou představuje program: Vystoupí Slza, ATMO Music, Rybičky
48, UDG, Voxel, Wohnout i Visací zámek
- Vydáno před 22 hodinami | autor: redakce Facebook368 Twitter0 Google+0 Už 18. roč... - ireport.cz


Rybičky 48:
VIDEO: Rybičky 48 děkují za turné Slibuju, že nebudu pít - Vydáno 20.03.2016 | autor: Jaroslav Noska Facebook225 Twitter0 Google+0 Jarní turn... - ireport.cz


Dan Bárta:
Víkendové Mezi ploty lákají na Sto zvířat, Načevu, Bártu i Tomáše
Kluse
- zvířat, Načevu, Bártu i Tomáše Kluse 0 Tomáš Klus představil novinky pro leto... - lidovky.cz


Inekafe:
Inekafe predstavili prvého hosťa európskeho turné - Legendárna skupina Inekafe začne rok 2015 vo veľkom štýle. Po vydaní nového albumu... - Žijeme hudbou


Rybičky 48:
G2 Acoustic Stage ohlašuje další jména - Rybičky 48 a Kamil Střihavka - /**/ více tis... - IREPORT


Rybičky 48:
Rybičky 48 předvedli, co je to rock'n'roll - Rybičky 48 předvedli, co je to rock'n'roll 10. 04. 2014 ... - rockandpop.cz


Chinaski:
Hudební ceny Óčko: Radují se Tomáš Klus, Kryštof i Mandrage - Hudební ceny Óčko: Radují se Tomáš Klus, Kryštof i Mandrage];" style="display: non... - IREPORT


 

Rybičky 48

Fanúšikov: 16



A B C Č D E F G H CH I J K L Ľ M N O P Q R S Š T U V W X Y Z Ž



ako:
Rybičky 48 - Emily lead
Rybičky 48 - Emily lead

tlač

edituj
Pesničku videlo 3004 návštevníkov.

Kvalita tabov :
Hodnotilo ľudí: 1 ohodnoť aj ty
Prispievateľ:

Genzus
Autor hudby: Rybicky 48

E------------------------ INTRO
A-----------------------
D--/-4---------6----/ 8x / 4----------6(vibrato)/
G--/---6--4--3------/ / --6--4--3--- / ukonceni intra
H--------------------
e-------------------

(zadny kluka nechetela protze vedel ze by ji daval do tela )

E-------4444----------------------------------------------
A-------6666------------------------------------------------
D-------6666-----/-4-------6-/ (3x)---4--------6(vibrato)
G----------------/---6-4-3---/ ( )-----6-4-3------------
H------------------------------------------------------
e--------------------------------------------------------

(ja dlouho dobu premyslim jak dostat jeji tajny klin)

PM----- --- --- --- --- !!!!!!!!!!!!!!! (to jenom aby byla mouuu)
E-----------------------------------------------------------------6----2
A-----------------------------------------------------------------8----4
D---4-4---4-4---4-4---4-4----4-4--- / -8----4
G-------3-----3-----3-----3------3-/ az do(to jenom aby byla mou)-------
H-----------------------------------------------------------------------
e-----------------------------------------------------------------------

refren (emily rekni co na tebe plati ) (udelám) (byla mouuu)
E------------------2222222-----------------22222222------4-------2
A----444444444-----4444444----444444444----44444444------6-------4
D----666666666-----4444444----666666666----44444444------6-------4
G----777777777----------------777777777---------------------------
H-----------------------------------------------------------------
e-----------------------------------------------------------------

E------------------------
A-----------------------
D--/-4---------6----/ 7x
G--/---6--4--3------/
H--------------------
e-------------------

(pak prislo strasni zjisteni)
PM----- --- --- --- --- !!!!!!!!!!!!!!!
E-----------------------------------------------------------------6----2
A-----------------------------------------------------------------8----4
D---4-4---4-4---4-4---4-4----4-4--- / -8----4
G-------3-----3-----3-----3------3-/ az do(to jenom aby byla mou)-------
H-----------------------------------------------------------------------
e-----------------------------------------------------------------------

refren (emily uz vim co na tebe plati )
(byla mouuu)
E------------------2222222-----------------22222222------4-------8
A----444444444-----4444444----444444444----44444444------6-------10
D----666666666-----4444444----666666666----44444444------6-------10
G----777777777----------------777777777---------------------------
H-----------------------------------------------------------------
e-----------------------------------------------------------------

SWITCH COMBO TO CLEAN ! ! ! ! ! !
E--------------------------/
A--------------------------/
D-------11-----------------/ 16x prosste dokonce poznate podle pisne nasleduje refren
G-----------------15----13-/
H---------14---12----------/
e--------------------------/

Switch combo to disortion ! ! ! ! !

(emily uz vim co na tebe palti emily ......) (abys byla mou)
E------------------2222222-----------------22222222---/ opakuj --4-------8
A----444444444-----4444444----444444444----44444444---/ skoro --6-------10
D----666666666-----4444444----666666666----44444444---/ do konce --6-------10
G----777777777----------------777777777---------------/ -----------
H-----------------------------------------------------/ -----------
e-----------------------------------------------------/ -----------


Děkuji za shlédnutí určitě nějaké chybčky najdete ale kdo neni až takový amatér podle poslechu a toho zakladního doprovodu by to měl zahrát.





 
»
Tvoje obľúbené položky
Tvoje obľúbené položky
»
Nové albumy interpreta
Nové albumy interpreta
6
CD Rybycky 48 Viva la revolucion
CD Viva la
revolucion

»
Najnovšie videá
Najnovšie videá

Rybiky 48 - Takhle ne! cover

rybicky 48 zamilovany nestastna cover

EMILY HAS FALLEN

La a Rybika 48

Blacklist Royals - "Brother and Sisters"

Farby Laky - Ryba
»
Najnavštevovanejšie piesne
Najnavštevovanejšie piesne



home | interpreti | register piesní | cd & dvd shop | pripomienky/nápady | kontakt | ochrana údajov | inzercia

TOPlist