Tublatanka

piesne (164)

  texty (131) / preklady (0)
  akordy (73) / taby (24)
  noty (6) / slideshow (0)

články (191)
fotogaléria
diskusia
videá
diskografia
v obchode
odkazy
koncerty
sťahuj



pridaj vlastný článok

Tublatanka:
Samovraždy slávnych: Muzikant Dodo Dubán pred smrťou fajčil jednu cigaretu za
druhou
- 18.12.2016 (50/2016) Keď zomrie človek, smúti rodina, príbuzní a priatelia. Ak sa však ro... - cas.sk


Maťo Ďurinda:
5 videoklipů od slovenské kapely Tublatanka - 8. 11. 2016 13:26 – autor: Redakce Osobnosti.cz Podívejte se na 5 videoklipů od slovens... - osobnosti.cz


Tublatanka:
Martin Ďurinda: Tublatanka sa pomaly stáva viacgeneračnou kapelou (rozhovor) - 04.10.2016 - 09:00 | Marek Danko Legendárna trojka má už 33 rokov, pritom stále prekva... - zoznam.sk


Tublatanka:
Skupina Tublatanka bude mať silnú koncertnú jeseň - ... - livemusic.sk


Bára Basiková:
Vyšiel Nový Populár, preèítajte si, èo obsahuje - Prvé tohtoročné číslo Nového Populáru prinieslo na titulke portrét Juraja Černého, ktor...


Bára Basiková:
Vyšiel časopis Nový Populár 1/2016, prečítajte si, čo obsahuje - sem napíšte text článkuPrvé tohtoročné číslo Nového Populáru prinieslo na titulke portré...


Tublatanka:
Tublatanka chystá pieseň pre bývalého bubeníka a kamaráta Ďura Černého - pred 7 hodinami | redakcia Stálica slovenskej rockovej scény len prednedávnom vydala D... - zoznam.sk


Tublatanka:
Recenze: Tublatanka na DVD "Vo veľkej škole dní" srší energií. Nezasloužila by
si ale honosnější oslavu?
- Vydáno: 11.03.2016 14:30 v sekci Recenze - Milan Menčík Tublatanka uzavírá oslavy svých ... - musicserver.cz


Tublatanka:
Pohreb hudobníka Juraja Černého sa uskutoční v pondelok - Posledná rozlúčka so zosnulým slovenským hudobníkom Jurajom Černým sa uskutoční v pondelo...


Tublatanka:
Zomrel hudobník Juraj Černý. Zakladal Tublatanku a hral v Slobodnej Európe - Zomrel hudobník Juraj Černý. Zakladal Tublatanku a hral v Slobodnej Európe ... - aktuality.sk


 

Tublatanka

Fanúšikov: 48



A B C Č D E F G H CH I J K L Ľ M N O P Q R S Š T U V W X Y Z Ž



ako:
Tublatanka - Láska drž ma nad hladinou
Tublatanka - Láska drž ma nad hladinou

tlač

edituj
Rok vzniku: 1987
Pesničku videlo 5155 návštevníkov.

Kvalita tabov : bez hodnotenia
Hodnotilo ľudí: 0 ohodnoť aj ty
Prispievateľ:

Nanesys
  *** Autor textu: Tublatanka *** Autor hudby: Tublatanka

TUBLATANKA - LASKA DRZ MA ESTE NAD HLADINOU


Sloha A:

E--------10-------12-------13------10------6-------5-------
H------10-------10-------10-------8------6-------5---------
G----10-------10-------10-------7------7-------6-----------
D--12-------11-------10-------9------8-------7-------------
A----------------------------------------------------------
E----------------------------------------------------------


E--------10-------10--------8-------9----------------------
H------10-------10--------8------10------------------------
G----10-------10-------10------9---------------------------
D--12-------10-------8-------7-----------------------------
A----------------------------------------------------------
E----------------------------------------------------------


Sloha B:

E--------10-------12-------13------10----------6-------5-------3----------
H------10-------10-------10-------8----------6-------6-------3---------2--
G----10-------10-------10-------7----------7-------5-------4---------2----
D--12-------11-------10-------9----------8-------7-------5---------2------
A-------------------------------------------------------------------------
E----------------------------------------------------------------0--------



Refren:

Dmi Dmi/C Bb G A G F A
E---------1---------1--------------------------0----------------------------------
H------3----------3--------3---------0-------2------------0---------1----------2--
G----2----------2---------3--------0-------2------------0---------2----------2----
D--0---------------------3-------0--------------------0---------3----------2------
A-------------3---------1----------------0-------------------------------0--------
E------------------------------3--------------------3----------1------------------

Dmi Bb C Dmi Bb C A
E-----------------------------------------------------------------------------------------
H-----6---------6---------------------6----------6----------8----------------------5------
G-------7---------7-------9-------------7----------7----------9----------6-----7-----7----
D---------7---------8-------10------------7----------8----------10---------8-----7--------
A--5---------------------------10---5----------------------------------------8------------
E-------------6---------8----------------------6----------8------------5------------------



Dmi Bb C Dmi Bb C A
E-----------------------------------5----------------------------------------------------
H-----6---------6---------8-----------6---------6----------8----------------------5------
G-------7---------7---------9-----------7----------7---------9-----------6-----7----7----
D---------7---------8---------10---------------------8---------10----------8-----7-------
A--5-------------------------------5-----------------------------------------8-----------
E-------------6---------8----------------------6----------8------------5-----------------



Bb C Dmi Bb C A
E--------------------------- 5-------5---------------------------------------------
H----6----------6--------------6-------6----------6----------6---------------------
G------7----------7--------------7-------7----------7----------7----------6--------
D---------8---------10--------------------------------8----------10---------7------
A--------------------------5--------5-----------------------------------------7----
E--6----------8--------------------------------6-----------8------------5-------5--



dalej sa opakuje uz len to iste:


SLOHA A
SLOHA B

REFREN

SLOHA A + SLOHA B (SOLO)

REFREN

 
»
Tvoje obľúbené položky
Tvoje obľúbené položky
»
Nové albumy interpreta
Nové albumy interpreta
DVD  Tublatanka: 30 rockov - vo velkej skole dni
DVD Tublatanka: 30
rockov - vo
velkej skole dni
CD Tublatanka Citim sa fajn - best of vol.3.
CD Citim sa fajn -
best of vol.3.
CD Tublatanka Svet v ohrozeni
CD Svet v ohrozeni
2xCD PPBOX Tublatanka Skusime to cez vesmir / zerave znamenie
2xCD PPBOX Skusime to cez
vesmir / zerave
znamenie
CD Tublatanka Gold
CD Gold
CD Tublatanka Panska jazda
CD Panska jazda

»
Najnovšie videá
Najnovšie videá

Tublatanka - Láska drž ma nad hladinou

Tublatanka - Laska, drz ma nad hladinou

Tublatanka - láska drž ma nad hladinou -

LASKA DRZ MA NAD HLADINOU - Tublatanka -

Tublatanka - Laska, drz ma nad hladinou

04 Tublatanka Laska drz ma este nad hlad
»
Najnavštevovanejšie piesne
Najnavštevovanejšie piesne
Loď do neznáma - akordy a text

Dnes - akordy a text

Matka - akordy a text

Loď do neznáma - správne - text

Dnes - text

Láska drž ma ešte nad hladinou - akordy a text

Mama - akordy a text

Môj starý dobrý kabát - akordy a text

Pravda víťazí - akordy a text

Bez tvojej lásky - akordy a text

viac




home | interpreti | register piesní | cd & dvd shop | pripomienky/nápady | kontakt | ochrana údajov | inzercia
Copyright © Pavol Bacigál, 2000-2017. Všetky práva vyhradené.
TOPlist