Tornádo Lue

piesne (8)

  texty (7) / preklady (0)
  akordy (7) / taby (0)
  noty (0) / slideshow (0)

články (26)
fotogaléria
diskusia
videá
diskografia
v obchode
odkazy
koncerty
sťahuj



pridaj vlastný článok

Blood Red Shoes:
Grape festival doplnil program o britských Blood Red Shoes, ale aj o domáce
legendy Le Payaco a Tornádo Lue.
- Piešťanský Grape festival dopĺňa program o ďalšie mená, 10. a 11. augusta sa na letisku ...


Tornádo Lue:
TORNÁDO LUE s comebackovým videoklipom a koncertami - V pondelok 16.apríla o 20:00 hod vystúpi v KC Dunaj, v Bratislave skupina TORNÁDO LUE. v...


Tornádo Lue:
Tornádo Lue sú späť, okrem koncertov plánujú i album - muzikus.cz


Buty:
Na Žákovic Open vystúpi takmer 20 kapiel - Na Žákovic Open vystúpi takmer 20 kapiel BRATISLAVA 14. februára (SITA) - Na festivale...


Michal Kaščák:
Žákovic Open štartuje o týždeň po piaty raz - Žákovic Open štartuje o týždeň po piaty raz BRATISLAVA 15. apríla (SITA) - Hudobný fes...


Tornádo Lue:
Nebeští jezdci po rockersku - folkcountry.cz


Tornádo Lue:
Z klišovitého popu si lze i utahovat - rozhlas.cz


Horkýže Slíže:
Tretí a posledný deň na Hodokvase - Treti a posledny den na HodokvaseFotky zo soboty V sobotu som si naplanoval, ze pridem... - markoff.biz


100°c:
Hodokvas sa začne punkom - Hodokvas sa začne punkom Inzercia Takto sa ľudia zabávali na minulom ročníku... - sme.sk


Čechomor:
Začne hudobný festival Hodokvas - Hodokvas 2004Zajtra sa zacne hudobny festival Hodokvas. Co poznam ludi z mojho okolia, do... - markoff.biz


 

Tornádo Lue

Fanúšikov: 0



A B C Č D E F G H CH I J K L Ľ M N O P Q R S Š T U V W X Y Z Ž



ako:
Tornádo Lue - Čaroděj
Tornádo Lue - Čaroděj

tlač

edituj

export
agama

export
txt
Poznámka: připomínky na tomfor@seznam.cz

Pesničku videlo 1464 návštevníkov.

Kvalita akordov : bez hodnotenia
Hodnotilo ľudí: 0 ohodnoť aj ty
Prispievateľ:

tomfor
Transpozícia:   [+1 +2 -1 -2]
A, C, D, A

E||-----------------------|------------------------|----------------------|
B||-----------------------|------------------------|----------------------|
G||-----------------------|------------------------|----------------------|
D||-----------------------|--0---------------------|--2----0---------0----|
A||--0----3----2----3--|-------3----2----3----|------------3---------|
E||-----------------------|------------------------|----------------------|



--------------------|-------------------------|----------------------|
--------------------|-------------------------|----------------------|
--------------------|-------------------------|----------------------|
--------------------|-------------------------|--0-------------------|
--2-----------------|--0----3----2----3----|-------3----2----3----|
-------3------------|-------------------------|----------------------|



------------------------|-------------------||
------------------------|-------------------||
------------------------|-------------------||
--2----0---------0----|--2----------------||
------------3----------|-------------------||
------------------------|-------------------||



Dobrou noc, můj čaroději
slyš svou vílu, slyš, jak štká
slyš, jak pláče v beznaději
noc jí truchloroušku tká – 2x

Dobrou noc, má plavovlásko
dobrou noc a sladce spi
až se probudíš, má lásko
nevyzraď své tajemství – 4x

 
»
Tvoje obľúbené položky
Tvoje obľúbené položky
»
Nové albumy interpreta
Nové albumy interpreta
CD Tornado Lue Live nu spirit club
CD Live nu spirit
club
CD Tornado Lue Tornado lue
CD Tornado lue

»
Najnovšie videá
Najnovšie videá

Tornádo Lue - Čaroděj (Turnov 2015)

Tornádo Lue Šílená Naz

Tornado Lue - Panenka

Tornado Lue - Cesta domu

Tornado Lue - Sladké je žít

TORNADO LUE - Nikto Neni
»
Akordové schémy
Akordové schémy
»
Najnavštevovanejšie piesne
Najnavštevovanejšie piesne
Cesta Domů - akordy a text

Čaroděj - akordy a text

Panenka - akordy a text

Sladké Je žít - text

Beatles – Jak To Doopravdy Bylo - akordy a text

Sladké Je žít - akordy a text

Popel - akordy a text

Nick A Svícen - akordy




home | interpreti | register piesní | cd & dvd shop | pripomienky/nápady | kontakt | ochrana údajov | inzercia
Copyright © Pavol Bacigál, 2000-2017. Všetky práva vyhradené.
TOPlist