Obd

piesne (27)

  texty (25) / preklady (0)
  akordy (10) / taby (2)
  noty (0) / slideshow (0)

články (5)
fotogaléria
diskusia
videá
diskografia
v obchode
odkazy
koncerty
sťahuj



pridaj vlastný článok

Obd:
Nový album O.B.D. „Stereo“ pokrstil Peci Uherčík medovinou zo špeciálnych
lupeňov ruží!
- 30. októbra 2016 marekmuzika 0 Comments Vyzretý, silný v odkaze a prepracovaný! Ta... - music-zone.eu


Obd:
Chalani z kapely O.B.D. sú pod papučou, vyspievali to v singli „Stereo“! - 22.9. 2016 Kapela O.B.D. hlási veľkolepý návrat a prichádza s novým singlom „Stere... - M.Šoky


Obd:
Zaznejú Komáre aj novinky - Zaznejú Komáre aj novinky Dvadsať muzikantov na pódiu uvidíte skôr na festivale ne... - sme.sk


Obd:
O.B.D. už o týždeň oslávia 20 rokov jedinečným koncertom - Slovenská alternatívnorocková kapela O.B.D. (Orchester Bronislava Dobrotu), ktorá si tent...


Davová Psychóza:
Legendárna kapela O.B.D. oslávi v lete svoje 20. narodeniny unikátnym koncertom
v Bratislave!
- Tento rok si slovenská alternatívno rocková kapela O.B.D. (Orchester Bronislava Dobrotu) ... - Roman Fecko


Obd:
O.B.D. budú mať v Bratislave veľký narodeninový koncert - Slovenská alternatívna formácia O.B.D. (Orchester Bronislava Dobrotu) oslavuje tento rok ...


Divokej Bill:
Na Bažante na mlynoch vystúpi Divokej Bill, OBD i Para - Na Bažante na mlynoch vystúpi Divokej Bill, OBD i Para Ďalšími účinkujúcimi, ktorí sa 27...


Obd:
O.B.D. chystá comebackový koncert5 December, 2008 - 09:00, napísal/a redakcia - hudba.sk


Obd:
O.B.D. - ´víkendová kapela´... - music.box.sk


Obd:
Koncerty, o ktorých by ste určite mali vedieť: O.B.D. a Živé kvety v ICCT-čku,
S.P.S. v Colosseu...
- music.box.sk


 

Obd

Fanúšikov: 1



A B C Č D E F G H CH I J K L Ľ M N O P Q R S Š T U V W X Y Z Ž



ako:
Obd - Zrelé vlasy
Obd - Zrelé vlasy

tlač

edituj
Pesničku videlo 2075 návštevníkov.

Kvalita tabov :
Hodnotilo ľudí: 1 ohodnoť aj ty
Prispievateľ:

elizion

sloha:

e|-------------3----3--------------------------------------------
B|--------0----3----3--------------------------------------------
G|--------0----2----0--------------------------------------------
D|--------2---------2--------------------------------------------
A|--------2---------3--------------------------------------------
E|-0-2-3--0------------------------------------------------------

refrén:

e|--------3----3----3----3----3----------------------------------
B|---0----3----3----3----3----3----------------------------------
G|---0----2----0----2----0----2----------------------------------
D|---2---------2---------2---------------------------------------
A|---2---------3---------3---------------------------------------
E|---0-----------------------------------------------------------


 
»
Tvoje obľúbené položky
Tvoje obľúbené položky
»
Nové albumy interpreta
Nové albumy interpreta
CD O.b.d. Stereo
CD Stereo

»
Najnovšie videá
Najnovšie videá

O.B.D. Komáre Naživo_FM

obd, orchester brona dobrotu - biely str

OBD - Orchester Bronislava Dobrotu - Bie

obd., o.b.d., orchester bronislava dobro

OBD - Deadly Stroke

OBD - Slnecny den
»
Najnavštevovanejšie piesne
Najnavštevovanejšie piesne
Šialená óda - taby

Zrelé vlasy - taby

Komáre - akordy a text

Kam to vedie ? - akordy a text

Oči - akordy a text

S mojim ohňom sa hraj - akordy a text

Slnečný deň - akordy a text

V znamení rýb - akordy a text

Prečo sa pýtaš - text

Že sa mi zjavíš - text

viac




home | interpreti | register piesní | cd & dvd shop | pripomienky/nápady | kontakt | ochrana údajov | inzercia
Copyright © Pavol Bacigál, 2000-2017. Všetky práva vyhradené.
TOPlist