Obd

piesne (27)

  texty (25) / preklady (0)
  akordy (10) / taby (2)
  noty (0) / slideshow (0)

články (5)
fotogaléria
diskusia
videá
diskografia
v obchode
odkazy
koncerty
sťahuj



pridaj vlastný článok

Obd:
Nový album O.B.D. „Stereo“ pokrstil Peci Uherčík medovinou zo
špeciálnych lupeňov ruží!
- 30. októbra 2016 marekmuzika 0 Comments Vyzretý, silný v odkaze a prepracovaný... - music-zone.eu


Obd:
Chalani z kapely O.B.D. sú pod papučou, vyspievali to v singli „Stereo“! - 22.9. 2016 Kapela O.B.D. hlási veľkolepý návrat a prichádza s novým singlom ... - M.Šoky


Obd:
Zaznejú Komáre aj novinky - Zaznejú Komáre aj novinky Dvadsať muzikantov na pódiu uvidíte skôr na festiv... - sme.sk


Obd:
O.B.D. už o týždeň oslávia 20 rokov jedinečným koncertom - Slovenská alternatívnorocková kapela O.B.D. (Orchester Bronislava Dobrotu), ktorá si ...


Davová Psychóza:
Legendárna kapela O.B.D. oslávi v lete svoje 20. narodeniny unikátnym
koncertom v Bratislave!
- Tento rok si slovenská alternatívno rocková kapela O.B.D. (Orchester Bronislava Dobrot... - Roman Fecko


Obd:
O.B.D. budú mať v Bratislave veľký narodeninový koncert - Slovenská alternatívna formácia O.B.D. (Orchester Bronislava Dobrotu) oslavuje tento r...


Divokej Bill:
Na Bažante na mlynoch vystúpi Divokej Bill, OBD i Para - Na Bažante na mlynoch vystúpi Divokej Bill, OBD i Para Ďalšími účinkujúcimi, kto...


Obd:
O.B.D. chystá comebackový koncert5 December, 2008 - 09:00, napísal/a redakcia
- hudba.sk


Obd:
O.B.D. - ´víkendová kapela´... - music.box.sk


Obd:
Koncerty, o ktorých by ste určite mali vedieť: O.B.D. a Živé kvety v
ICCT-čku, S.P.S. v Colosseu...
- music.box.sk


 

Obd

Fanúšikov: 1



A B C Č D E F G H CH I J K L Ľ M N O P Q R S Š T U V W X Y Z Ž



ako:
Obd - Šialená óda
Obd - Šialená óda

tlač

edituj
Rok vzniku: 1995
Pesničku videlo 1920 návštevníkov.

Kvalita tabov :
Hodnotilo ľudí: 1 ohodnoť aj ty
Prispievateľ:

elizion
Autor hudby: O.B.D.

intro:

e|-0-0-----------------------------0-0------------------------------
B|-5-5-x-x--5----------------------5-5-5-7^r-5-7p5------------------
G|-6-6-x-x----6-4h6p4h6p4h6p4h6p4--6-6-------------6----------------
D|-6-6-x-x-------------------------6-6------------------------------
A|-4-4-x-x-------------------------4-4------------------------------
E|------------------------------------------------------------------

e|-0-0--------------------------------------------------------------
B|-5-5-x-x--5----------------------5--------------------------------
G|-6-6-x-x----6-4h6p4h6p4h6p4h6p4--6--------4/6---------------------
D|-6-6-x-x-------------------------6-4-5-6--4/6---------------------
A|-4-4-x-x-------------------------4-4-5-6--2/4---------------------
E|-----------------------------------2-3-4--------------------------

sloha:

e|-0-0------------0-0------------0-0--------------------------------
B|-5-5-x-x-x-x-x--5-5-x-x-x-x-x--5-5-x-x-x-x-x---5------------------
G|-6-6-x-x-x-x-x--6-6-x-x-x-x-x--6-6-x-x-x-x-x---6--------4/6-------
D|-6-6-x-x-x-x-x--6-6-x-x-x-x-x--6-6-x-x-x-x-x---6-4-5-6--4/6-------
A|-4-4-x-x-x-x-x--4-4-x-x-x-x-x--4-4-x-x-x-x-x---4-4-5-6--2/4-------
E|-------------------------------------------------2-3-4------------

refrén:

e|-0-0-----0---022-0-------0---7-7-x-x-7/9-9-7~---------------------
B|-5-------0---000-0-------0---7-7-x-x-7/9-9-7~---------------------
G|-4-------2---222-2-------4---9-9-x-x-------9~---2-2--2-2-2-2-2-2--
D|-6-------2---222-2-------4---9-9-x-x-------9~---2-2--2-2-2-2-2-2--
A|-4-------0---000-0-------2----------------------0-0--0-0-0-0-0-0--
E|------------------------------------------------------------------

sólo

intermezzo:

e|-0----------12f---------------------------------------------------
B|-5---5p4------12f--7^r^full-5-7----5p4h7--------------------------
G|-4---4--6~----------------------4~-4------------------------------
D|-6--6-----------7f------------------------------------------------
A|-4-4--------------------------------------------------------------
E|------------------------------------------------------------------


h - hammer on
p - pull off
^ - bend
r - release
/ - slide
f - flažolety


 
»
Tvoje obľúbené položky
Tvoje obľúbené položky
»
Nové albumy interpreta
Nové albumy interpreta
6
CD O.b.d. Stereo
CD Stereo

»
Najnovšie videá
Najnovšie videá

obd, orchester brona dobrotu - biely str

OBD - Orchester Bronislava Dobrotu - Bie

OBD - Slnen de

O.B.D - preo sa pta?

O.B.D - Orchester Bronislava Dobrotu - Z

O.B.D - Had
»
Najnavštevovanejšie piesne
Najnavštevovanejšie piesne
Zrelé vlasy - taby

Komáre - akordy a text

Šialená óda - taby

Kam to vedie ? - akordy a text

Oči - akordy a text

S mojim ohňom sa hraj - akordy a text

Slnečný deň - akordy a text

V znamení rýb - akordy a text

Prečo sa pýtaš - text

Že sa mi zjavíš - text

Od dobrého hlava nezabolí - text

Sanorin - text

Padali hviezdy - text

Pekné počasie - text

Kráčam mestom - text

Dlhé nosy - text

Tak stoj - text

Žiadna sláva - text

Voda - text

Voda - akordy a text

viac




home | interpreti | register piesní | cd & dvd shop | pripomienky/nápady | kontakt | ochrana údajov | inzercia

TOPlist