Kabát

piesne (537)

  texty (262) / preklady (0)
  akordy (174) / taby (243)
  noty (0) / slideshow (0)

články (317)
fotogaléria
diskusia
videá
diskografia
v obchode
odkazy
koncerty
sťahuj



pridaj vlastný článok

Kabát:
Skupina Kabat na Topfeste! - ... - livemusic.sk


Kabát:
ROCK POD KAMEŇOM PODPORUJE ČESKO-SLOVENSKÚ ROCKOVÚ SCÉNU - Kompletný line-up nabitý svetovými rockermi s výbornou muzikou uzatvárajú zoskupenia rock... - P.Dráb


Accept:
Report z Metalfest Open Air 2016 v Plzni - Pamatujete na rok 2010, kdy se Metalfest Open Air konal poprvé? Tenkrát byl součástí sé... - rockmag.cz


Kabát:
Kabát prý prodal nejvíce desek, cenu na Andělech ale nevyhraje - Kabát prý prodal nejvíce desek, cenu na Andělech ale nevyhraje Nové desky pro 14. tý... - musicserver.cz


Adele:
Pětadvacátý ročník hudebních cen Anděl zná své výherce - Pětadvacátý ročník hudebních cen Anděl zná své výherce Video: Slza v novém klipu k p... - musicserver.cz


Kabát:
Kabát tvrdí, že je nespravedlivě vyřazen z boje o nejprodávanější album - Skupina Kabát tvrdí, že byla vyřazena z boje o nejprodávanější album loňského roku. Stalo... - novinky.cz


Kabát:
Kabát vyhlásil bojkot cenám Anděl! Podle rockerů jsou výsledky zmanipulované! - Skupina Kabát letošní ceny Anděl bude bojkotovat. Podle ní jsou výsledky zmanipulované. ... - blesk.cz


Kabát:
Spokojený rocker Pepa Vojtek: Vyvedl těhotnou manželku na nákupy - Šťastný rocker Pepa Vojtek vyvedl těhotnou manželku. Pepa Vojtek s manželkou Jovankou vy... - blesk.cz


Chinaski:
Hudobníci budú na TOPFEST-e skladať rockovú maturitu. V porote sú aj Zuzana
Smatanová, či Polemic!
- Published by MUSIC ZONE on 24. marca 2016 | Komentáre vypnuté na Hudobníci budú na TOPFES... - music-zone.eu


Kabát:
Na 13-tom ročníku festivalu TOPFEST to roztočia kapely Kabát, Puddle of Mudd a
UK Subs!
- ... - livemusic.sk


 

Kabát

Fanúšikov: 178



A B C Č D E F G H CH I J K L Ľ M N O P Q R S Š T U V W X Y Z Ž



ako:
Kabát - Kdeco nám zachutná
Kabát - Kdeco nám zachutná

tlač

edituj
V originále: Kabát
Pesničku videlo 2893 návštevníkov.

Kvalita tabov :
Hodnotilo ľudí: 1 ohodnoť aj ty
Prispievateľ:

maxxx1997
Autor hudby: Kabát
Začiatok/medzihra
e----------------------------------------------
h----------------------------------------------
G---5-7-9-9-9-7-5-7-5-4-4-4-5-7-7-7-5-4--------
D-5------7-7-----------5-5-----5-5------7-7-7--
A----------------------------------------7-7-7-
E----------------------------------------------

e----------------------------------------------
h---------------------------------------5------
G---5-7-9-9-9-7-5-7-5-4-4-4-5-7-7-7-5-4--------
D-5------7-7-----------5-5-----5-5-------------
A----------------------------------------------
E----------------------------------------------

Sloha
e-----------------------------------
h-----------------------------------
G-----------------------------------
D-10--9----10-----------9--10----12-
A------------12---12-14-------------
E-----------------------------------

Solo
e-----------------------------------------------------------------
h-----------------------------------------------------------------
G-----------------------------14---------12--------14----------16-
D-10--10-12-9----10-----10h12----12-9h11-----10h12----12-12h14----
A-------------12----12--------------------------------------------
E-------------12--------------------------------------------------

 
»
Tvoje obľúbené položky
Tvoje obľúbené položky
»
Nové albumy interpreta
Nové albumy interpreta
4xDVD Kabat 2013-2015 live vypich 2014 + o2 arena [3dvd+cd]
4xDVD 2013-2015 live
vypich 2014 + o2
arena [3dvd+cd]
4xCD Kabat Original albums 4cd vol.1 [mjm,dttz,colorado,zpt]
4xCD Original albums
4cd vol.1
[mjm,dttz,colora
do,zpt]
3xVINYL Kabat Suma sumarum [vinyl]
3xVINYL Suma sumarum
[vinyl]
CD Kabát Do pekla do nebe
CD Do pekla do nebe
3xCD+DVD Kabat Suma sumarum 2013 remastered
3xCD+DVD Suma sumarum
2013 remastered
2xCD Kabat Banditi di praga turne 2011
2xCD Banditi di praga
turne 2011

»
Najnovšie videá
Najnovšie videá

Kabát - Kdeco nám zachutná

Kabát - Kdeco nám zachutná

Kabát - Kdeco nám zachutná

Kabát - Kdeco nám zachutná

Kabát - Kdeco nám zachutná | Guitar cove

Kabát - Kdeco nám zachutná (Guitar Cover
»
Najnavštevovanejšie piesne
Najnavštevovanejšie piesne
Malá dáma - akordy a text

Houby magický - akordy a text

Pohoda - akordy a text

Western Boogie - akordy

Kdoví jestli - akordy a text

Burlaci - akordy a text

Brousíme nože - akordy a text

Corrida - akordy a text

Malá Dáma ver.2 - akordy a text

Schody - akordy a text

viac




home | interpreti | register piesní | cd & dvd shop | pripomienky/nápady | kontakt | ochrana údajov | inzercia
Copyright © Pavol Bacigál, 2000-2017. Všetky práva vyhradené.
TOPlist