Cocotte Minute

piesne (41)

  texty (30) / preklady (0)
  akordy (3) / taby (8)
  noty (0) / slideshow (0)

články (60)
fotogaléria
diskusia
videá
diskografia
v obchode
odkazy
koncerty
sťahuj



pridaj vlastný článok

Cocotte Minute:
Cocotte Minute završí úspěšný comebackový rok speciálním vánočním
koncertem v Paláci Akropolis
- Vydáno: 08.11.2016 18:13 v sekci Tiskové zprávy - Tisková zpráva SDÍLET: ... - musicserver.cz


Cocotte Minute:
Cocotte Minute natočili nové album na video. A v utajení! - /**/ více tiscali.cz ... - IREPORT


2 Chainz:
Nové desky pro 15. týden - musicserv... - musicserver.cz


Cocotte Minute:
The Prostitutes are back in town aneb jarní turné právě startuje - The Prostitutes are back in town aneb jarní turné právě startuje];" style="display: n... - IREPORT


Cocotte Minute:
t-music Back to School v Brně: Cocotte Minute, Mandrage i Eddie Stoilow - ireport.cz


Cocotte Minute:
LIVE: Back to School v Brně - návrat do lavic ve velkém stylu - ireport.cz


Cocotte Minute:
Open air t-music Back to School právě startuje. Navštíví šest měst - ireport.cz


Cocotte Minute:
Cocotte Minute mají nový videoklip a čeká derniéra Sado Disco tour - Po třech dlouhých a náročných letech se skupina Cocotte Minute rozhodla oficiálně...


Cocotte Minute:
NATRUC 2011 – PARÁDNÍ TEČKA ZA FESTIVALOVOU SEZÓNOU - NATRUC 2011 – PARÁDNÍ TEČKA ZA FESTIVALOVOU SEZÓNOU V sobotu 27. srpna 2011 pro...


Cocotte Minute:
Horkýže Slíže a Cocotte Minute vyrazili na turné - musicserver.cz


 

Cocotte Minute

Fanúšikov: 6



A B C Č D E F G H CH I J K L Ľ M N O P Q R S Š T U V W X Y Z Ž



ako:
Cocotte Minute - Lodě - Intro
Cocotte Minute - Lodě - Intro

tlač

edituj
Rok vzniku: 2014
Pesničku videlo 2635 návštevníkov.

Kvalita tabov : bez hodnotenia
Hodnotilo ľudí: 0 ohodnoť aj ty
Prispievateľ:

HaWLiS
  *** Autor textu: Zeller *** Autor hudby: Cocotte Minute
DROP B    B F# B E G# C#
(Drop C dolu o jeden pražec)

C#|----------------------------------------------------------------------|
G#|--6------------6---6-----------/--8-------------8---8-----------------|
E |----7------------7---7---------/----9-------------9---9---------------|
B |----------------------------------------(8)-8-------------------------|
F#|----------------------------------------------------------------------|
B |0------(0)-0----------------------------------------------------------|


C#|----------------------------------------------------------------------|
G#|--6-----------6---6-----------/--8------------------------------------|
E |----7-----------7---7---------/----9----------------------------------|
B |----------------------------------------8--7--------------------------|
F#|----------------------------------------------------------------------|
B |0------(0)-0----------------------------------------------------------|

 
»
Tvoje obľúbené položky
Tvoje obľúbené položky
»
Nové albumy interpreta
Nové albumy interpreta
6
2xCD+DVD Cocotte Minute Ritual, kmen a srdce a kmen
2xCD+DVD Ritual, kmen a
srdce a kmen

»
Najnovšie videá
Najnovšie videá

Cocotte minute Lod T music back to scho

Cocotte Minute - Kopem! @ Dobr rno T2

Cocotte Minute - Lod

Cocotte Minute - Moje holka

Cocotte Minute - Dal Rno

Cocotte Minute - Srdce
»
Najnavštevovanejšie piesne
Najnavštevovanejšie piesne



home | interpreti | register piesní | cd & dvd shop | pripomienky/nápady | kontakt | ochrana údajov | inzercia

TOPlist