Zdeněk Svěrák & Jaroslav Uhlíř

piesne (247)

  texty (235) / preklady (0)
  akordy (189) / taby (3)
  noty (3) / slideshow (0)

články (6)
fotogaléria
diskusia
videá
diskografia
v obchode
odkazy
koncerty
sťahuj



pridaj vlastný článok

4tet:
Domácí hitparádu už měsíc vede Čechomor - ihned.cz


Jaroslav Uhlíř:
Jaroslav Uhlíř - Babička pro večerníček - televize.cz


Zdeněk Svěrák:
Autorská dvojice Svěrák a Uhlíř se ohlíží na DVD - universal.cz


Zdeněk Svěrák:
Zdeněk a Jan Svěrákovi: V krizi s úsměvem - centrum.cz


Zdeněk Svěrák:
Zdeněk Svěrák: Jak mi umřel brácha - blesk.cz


Filmová Hudba Cz:
Zaměstnanec továrničky na smích: Zdeněk Svěrák - televize.cz


 

Zdeněk Svěrák & Jaroslav Uhlíř

Fanúšikov: 4



A B C Č D E F G H CH I J K L Ľ M N O P Q R S Š T U V W X Y Z Ž



ako:
Zdeněk Svěrák & Jaroslav Uhlíř - Severní vítr
Zdeněk Svěrák & Jaroslav Uhlíř - Severní vítr

tlač

edituj
Pesničku videlo 6633 návštevníkov.

Kvalita tabov : bez hodnotenia
Hodnotilo ľudí: 0 ohodnoť aj ty
Prispievateľ:

petr554
  *** Autor textu: Z.Svěrák *** Autor hudby: J.Uhlíř
Guitar (Capo 2)
Takt 3/4
Tempo 120bpm
C
H. Q Q Q Q Q Q
E||---------------||--------0----0----|-------0----L----|
B||---------------||--------1----1----|-------1----L----|
G||---------------||*-------0----0----|-------0----L----|
D||---------------||*-----------------|-----------------|
A||---------------||---3----L---------|--3----L----2----|
E||---------------||------------------|-----------------|


Am F
Q Q Q Q Q Q Q Q Q
-------0----0----|-------0----L----|-------1----1----|
-------1----1----|-------1----L----|-------1----1----|
-------2----2----|-------2----L----|-------2----2----|
-----------------|-----------------|-----------------|
--0----L---------|--0----L---------|-----------------|
-----------------|------------3----|--1----L---------|


F C C/G
Q Q Q Q Q Q Q Q Q
-------1----1----|-------0----0----|-------0----0-----||
-------1----1----|-------1----1----|-------1----1-----||
-------2----2----|-------0----0----|-------0----0----*||
-----------------|-----------------|-----------------*||
-----------------|--3----L---------|------------------||
--1----L---------|-----------------|--3----L----------||


G C G
Q Q Q Q Q Q E E E E E E
-------3----3----|-------0----0----|--------------------|
-------0----0----|-------1----1----|-----0-----0-----0--|
-------0----0----|-------0----0----|-----0-----0-----0--|
-----------------|-----------------|--------------------|
-----------------|--3----L---------|--------0-----2-----|
--3----L---------|-----------------|--3-----------------|


C C7 F
E E E E E E E E E E E E E E E E E E
|------------0--------|-----------0--------|-----------1--------|
|---------1-----1-----|--------1-----1-----|--------1-----1-----|
|*-----0-----------0--|-----3-----------3--|-----2-----------2--|
|*--------------------|--------------------|--3--L--------------|
|---3--L--------------|--3--L--------------|--------------------|
|---------------------|--------------------|--------------------|


F C/E Dm7 C C
E E E E E E E E E E E E E E E E E E
----------------------|-----------0--------|--------------------|
----------------------|--------1-----1-----|-----1-----1-----1--|
-----2------0------0--|-----0-----------0--|-----0-----0-----0--|
--3-----2------0------|--------------------|--------------------|
----------------------|--3--L--------------|--3-----2-----0-----|
----------------------|--------------------|--------------------|


G G G
E E E E E E E E E E E E E E E E E E
-----------3--------|---------------------||-----------3--------|
--------0-----0-----|-----0-----0-----0---||--------0-----0-----|
-----0-----------0--|-----0-----0-----0--*||-----0-----------0--|
--------------------|--------------------*||--------------------|
--------------------|--------0-----2------||--------------------|
--3--L--------------|--3------------------||--3--L--------------|


C G F C/E Dm7
E E E E E E E E E E E E Q Q Q
-----------0--------|--------------------|-----------------|
--------1-----1-----|-----0-----0-----0--|--1----1----1----|
-----0-----------0--|-----0-----0-----0--|--2----0----2----|
--------------------|--------------------|--3----2----0----|
--3--L--------------|--------0-----2-----|-----------------|
--------------------|--3-----------------|-----------------|


C
H.
--0------------||
--1------------||
--0------------||
---------------||
--3------------||
---------------||

tab v pdf:
https://www.dropbox.com/s/7zm3t0snqcyro8w/Severni_vitr.pdf


Duration Legend
---------------
W - whole
H - half
Q - quarter
E - 8th
S - 16th
T - 32nd
X - 64th
. - note dotted
|-n-| - n-tuplets


Tablature Legend
----------------
L - tied note
x - dead note
g - grace note
(n) - ghost note
> - accentuded note
NH - natural harmonic
AH - artificial harmonic
TH - tapped harmonic
SH - semi harmonic
PH - pitch harmonic
h - hammer on
p - pull off
b - bend
br - bendRelease
pb - preBend
pbr - preBendRelease
brb - bendReleaseBend
\n/ - tremolo bar dip
\n - tremolo bar dive
-/n - tremolo bar Release up
/n\ - tremolo bar inverted dip
/n - tremolo bar return
-\n - tremolo bar Release down
S - shift slide
s - legato slide
/ - slide into from below or out of upwards
\ - slide into from above or out of downwards
~ - vibrato
W - wide vibrato
tr - trill
TP - tremolo picking
T - tapping
S - slap
P - pop
< - fade in
^ - brush up
v - brush down

 
»
Tvoje obľúbené položky
Tvoje obľúbené položky
»
Nové albumy interpreta
Nové albumy interpreta
2xCD Sverak & Uhlir Pisnicky o zviratech
2xCD Pisnicky o
zviratech
2xCD Sverak & Uhlir Hity a skorohity
2xCD Hity a skorohity
2xCD Sverak & Uhlir To nejlepsi-20 let 2cd
2xCD To nejlepsi-20
let 2cd
CD Sverak & Uhlir Zazit nudu, vadi
CD Zazit nudu, vadi
CD Sverak & Uhlir Zazit krachy, nevadio
CD Zazit krachy,
nevadio
CD Sverak & Uhlir Hodina zpevu 1987-2001
CD Hodina zpevu
1987-2001

»
Najnovšie videá
Najnovšie videá

Vrchní, prchni! - Severní vítr - Zdeněk

Severní vítr je krutý - Jaroslav Uhlíř

Uhlíř, Svěrák - Jsem nádraží

Zdeněk Svěrák- Jaroslav Uhlíř - Sever

Uhlíř, Svěrák - Byl rodič a měl děcko

Uhlíř, Svěrák - Bohumil
»
Najnavštevovanejšie piesne
Najnavštevovanejšie piesne
Severní vítr - akordy a text

Narozeninová - akordy a text

Dělání - akordy a text

Ani k stáru (z filmu Vratné lahve) - ver1.1-správně - akordy a text

Do naší hospůdky - akordy a text

Mravenčí ukolébavka - akordy a text

Severní vítr s akordy - akordy a text

Karkulka - akordy

Když se zamiluje kůň - akordy a text

Hajný je lesa pán - lépe - akordy

viac




home | interpreti | register piesní | cd & dvd shop | pripomienky/nápady | kontakt | ochrana údajov | inzercia
Copyright © Pavol Bacigál, 2000-2017. Všetky práva vyhradené.
TOPlist