Pavel Bobek

piesne (61)

  texty (55) / preklady (0)
  akordy (47) / taby (5)
  noty (0) / slideshow (0)

články (55)
fotogaléria
diskusia
videá
diskografia
v obchode
odkazy
koncerty
sťahuj



pridaj vlastný článok

Pavel Bobek:
Zomrel Pavel Bobek :( - Vo veku 76 rokov dnes zomrel český spevák Pavel Bobek. Známy hudobník posledný raz vydých...


Pavel Bobek:
Nautilus Zdeňka Rytíře (online album) - Hodnotenie: 10 / 10 Pošli na Facebook Pošli na Twitter Pošli na Googl... - server.sk


Pavel Bobek:
Vážná nemoc Pavla Bobka: Rozkládá se mu kůže! - 8. února 2013 9:57 Legenda české country Pavel Bobek (75) má v posledních letech víc st... - super.cz


Pavel Bobek:
Pavel Bobek v Malostranské besedě - PR Podruhé v lednu vás zveme do Malostranské besedy. Ve stř... - folktime.cz


Pavel Bobek:
Žlutý pes, Petr Kolář nebo Pavel Bobek zahrají na Slavnostech svijanského piva - ireport.cz


Pavel Bobek:
Vyšlo nové album Pavla Bobka – Kruhy - countryworld.cz


Pavel Bobek:
Pavel Bobek: Zpívat lidem mě dělá mladším - novinky.cz


Pavel Bobek:
Pavel Bobek zpívá o smíření se životem - novinky.cz


Pavel Bobek:
Pavel Bobek vydáva tento týždeň nový album Kruhy a chystá sa na veľké koncerty k
75. narodeninám.
- Na album zaradil coververzie piesní E. Claptona, G. Cladwella, M. Hollidaya, Ch. Cornel...


Pavel Bobek:
Pavel Bobek změnil názor a vydá nové album s názvem Kruhy - ceskenoviny.cz


 

Pavel Bobek

Fanúšikov: 3



A B C Č D E F G H CH I J K L Ľ M N O P Q R S Š T U V W X Y Z Ž



ako:
Pavel Bobek - Vincent van Gogh
Pavel Bobek - Vincent van Gogh

tlač

edituj
V originále: Vincent
Pesničku videlo 3261 návštevníkov.

Kvalita tabov : bez hodnotenia
Hodnotilo ľudí: 0 ohodnoť aj ty
Prispievateľ:

petr554
  *** Autor textu: Zdeněk Rytíř(cz) Don Mc Lean (en) *** Autor hudby: Don Mc Lean
Title: Vincent van Gogh
SubTitle: Vincent


Tempo = 90
Acoustic Guitar

Legend
L - tied note
x - dead note
h - hammer on/pull off
b - bend
s - slide
~ - vibrato
g - ghost note
> - accentuated note
t - trill
M - palm mute
. - staccato
P - popping (bass)
S - slapping (bass)
+ - tapping
W - wide vibrato
< - fade in
w - whammy bar
= - tremolo picking
v - brush up
^ - brush down
V - pick stroke up
n - pick stroke down


E |--------------3--------3----|
B |--------------0--------0----|
G |--------0h-2--------0-------|
D |--0h-2-----------0----------|
A |----------------------------|
E |--------------3-------------|


--3L-3--------------3-----3-----------------0-------|
--0h-1--------------1-----0-----------------0-------|
--------------0-----------------------0-------------|
--------0-----------------------0-------------------|
----------------------------------------------------|
--3L-3--------------------3-------------------------|


----------------------------|
--3-----1h-0-----------1----|
-----0--------------2-------|
-----------------2----------|
--------------0-------------|
--3-----3-------------------|


----------------------------------------------------|
--0-----------------0-----0h-1--------------1-------|
--------------2-----------------------2-------------|
--------2-----------------------2-------------------|
--0-----------------------0L-0----------------------|
----------------------------------------------------|


----------------------------|--0-----0-------------------|
--0--------0--1--------1----|--1-----1-----------1-------|
--------2-----------0-------|-----0-----0-----2-----2----|
-----2-----------2----------|--------------0-------------|
--0-----------3-------------|----------------------------|
----------------------------|----------------------------|


--2-----------3-------------|--------------3--------3----|
-----1-----1--0-------------|--------------0--------0----|
--------2-----0-------------|--------0h-2--------0-------|
----------------------------|--0h-2-----------0----------|
----------------------------|----------------------------|
--------------3-------------|--------------3-------------|


--3L-3--------------3-----3-----------------0-------|
--0h-1--------------1-----0-----------------0-------|
--------------0-----------------------0-------------|
--------0-----------------------0-------------------|
----------------------------------------------------|
--3L-3--------------------3-------------------------|


----------------------------|
--3-----1h-0-----------1----|
-----0--------------2-------|
-----------------2----------|
--------------0-------------|
--3-----3-------------------|


----------------------------------------------------|
--0-----------------0-----0h-1--------------1-------|
--------------2-----------------------2-------------|
--------2-----------------------2-------------------|
--0-----------------------0L-0----------------------|
----------------------------------------------------|


----------------------------|--0-----0-------------------|
--0--------0--1--------1----|--1-----1-----------1-------|
--------2-----------0-------|-----0-----0-----2-----2----|
-----2-----------2----------|--------------0-------------|
--0-----------3-------------|----------------------------|
----------------------------|----------------------------|


--2-------------------------|-----------------------3----|
-----1-----1----------------|--1h-3h-1--0--------0-------|
--------2-----------0-------|----------------------------|
-----------------0-----0----|--2h-4h-2--------0----------|
----------------------------|----------------------------|
--------------3-------------|--------------3-------------|


----------------------------|--3-----3-----2-------------|
-----------------------1----|--1-----1-----1-----1-------|
--------------------2-------|-----2-----2--2--2-----2----|
-----------------2----------|--------------0-------------|
--------------0-------------|----------------------------|
----------------------------|----------------------------|


--2-------------------------|----------------------------|
-----1-----1--------0-------|--------0-----------0-------|
--------2--------0-----0----|-----0-----0-----0-----0----|
----------------------------|----------------------------|
----------------------------|----------------------------|
--------------3-------------|--2-----------0-------------|


--0-------------------------|--3-------------------------|
-----0-----0--------1-------|-----1-----1--------1-------|
--------0--------2-----2----|--------2--------2-----2----|
----------------------------|--------------0-------------|
--------------0-------------|----------------------------|
----------------------------|----------------------------|


--2-----------0-------------|----------------------------|
-----1-----1--0-------------|----------------------------|
--------2-----0-------------|-----------------------0----|
--------------2-------------|--------------------2-------|
--------------2-------------|-----------------0----------|
--------------0-------------|----------------------------|


----------------------------|----------------------------|
--2--2-----2-----1----------|--1--------1-----------0----|
-----0-----0-----2-----2----|--------2-----2-----0-------|
--------2-----2-----2-------|-----0----------------------|
-----0-----------0----------|----------------------------|
----------------------------|-----------------3----------|


----------------------------|--------------3--------3----|
-----1h-3h-1--0--------0----|--------------0--------0----|
--0-------------------------|--------0h-2--------0-------|
-----2h-4h-2--------0-------|--0h-2-----------0----------|
----------------------------|----------------------------|
-----------------3----------|--------------3-------------|


--3L-3--------------3-----3-----------------0-------|
--0h-1--------------1-----0-----------------0-------|
--------------0-----------------------0-------------|
--------0-----------------------0-------------------|
----------------------------------------------------|
--3L-3--------------------3-------------------------|


----------------------------|
--3-----1h-0-----------1----|
-----0--------------2-------|
-----------------2----------|
--------------0-------------|
--3-----3-------------------|


----------------------------------------------------|
--0-----------------0-----0h-1--------------1-------|
--------------2-----------------------2-------------|
--------2-----------------------2-------------------|
--0-----------------------0L-0----------------------|
----------------------------------------------------|


----------------------------|--0-----0-------------------|
--0--------0--1--------1----|--1-----1-----------1-------|
--------2-----------0-------|-----0-----0-----2-----2----|
-----2-----------2----------|--------------0-------------|
--0-----------3-------------|----------------------------|
----------------------------|----------------------------|


--2-----------3-------------|--------------3--------3----|
-----1-----1--0-------------|--------------0--------0----|
--------2-----0-------------|--------0h-2--------0-------|
----------------------------|--0h-2-----------0----------|
----------------------------|----------------------------|
--------------3-------------|--------------3-------------|


--3L-3--------------3-----3-----------------0-------|
--0h-1--------------1-----0-----------------0-------|
--------------0-----------------------0-------------|
--------0-----------------------0-------------------|
----------------------------------------------------|
--3L-3--------------------3-------------------------|


----------------------------|
--3-----1h-0-----------1----|
-----0--------------2-------|
-----------------2----------|
--------------0-------------|
--3-----3-------------------|


----------------------------------------------------|
--0-----------------0-----0h-1--------------1-------|
--------------2-----------------------2-------------|
--------2-----------------------2-------------------|
--0-----------------------0L-0----------------------|
----------------------------------------------------|


----------------------------|--0-----0-------------------|
--0--------0--1--------1----|--1-----1-----------1-------|
--------2-----------0-------|-----0-----0-----2-----2----|
-----2-----------2----------|--------------0-------------|
--0-----------3-------------|----------------------------|
----------------------------|----------------------------|


--2-------------------------|-----------------------3----|
-----1-----1----------------|--1h-3h-1--0--------0-------|
--------2-----------0-------|----------------------------|
-----------------0-----0----|--2h-4h-2--------0----------|
----------------------------|----------------------------|
--------------3-------------|--------------3-------------|


----------------------------|--3-----3-----2-------------|
-----------------------1----|--1-----1-----1-----1-------|
--------------------2-------|-----2-----2--2--2-----2----|
-----------------2----------|--------------0-------------|
--------------0-------------|----------------------------|
----------------------------|----------------------------|


--2-------------------------|----------------------------|
-----1-----1--------0-------|--------0-----------0-------|
--------2--------0-----0----|-----0-----0-----0-----0----|
----------------------------|----------------------------|
----------------------------|----------------------------|
--------------3-------------|--2-----------0-------------|


--0-------------------------|--3-------------------------|
-----0-----0--------1-------|-----1-----1--------1-------|
--------0--------2-----2----|--------2--------2-----2----|
----------------------------|--------------0-------------|
--------------0-------------|----------------------------|
----------------------------|----------------------------|


--2-----------0-------------|----------------------------|
-----1-----1--0-------------|----------------------------|
--------2-----0-------------|-----------------------0----|
--------------2-------------|--------------------2-------|
--------------2-------------|-----------------0----------|
--------------0-------------|----------------------------|


----------------------------|----------------------------|
--2--2-----2-----1----------|--1--------1-----------0----|
-----0-----0-----2-----2----|--------2-----2-----0-------|
--------2-----2-----2-------|-----0----------------------|
-----0-----------0----------|----------------------------|
----------------------------|-----------------3----------|


----------------------------|-----3----------------------|
-----1h-3h-1--0--------0----|--------0-----0--------1----|
--0-----------------0-------|--0--------0--------2-------|
-----2h-4h-2----------------|----------------------------|
----------------------------|-----------------0----------|
-----------------3----------|----------------------------|


-----3-----3-----2-----2g---|-----2----------------------|
-----1-----1-----1-----1----|--------1-----1--------0----|
--2--------------2g-2-------|--2--------2--------0-------|
--------2-----2--0----------|----------------------------|
----------------------------|----------------------------|
----------------------------|-----------------3----------|


----------------------------|-----0-----------0----------|
-----------0-----------0----|--------0-----0--1----------|
--0-----0-----0-----0-------|--0--------0-----2----------|
----------------------------|-----------------2----------|
----------------------------|-----------------0----------|
-----2-----------0----------|----------------------------|


-----------------3----------|----------------------------|
-----------------4----------|-----------------------0----|
-----------------5----------|--------------------0-------|
-----------------5----------|----------------------------|
-----------------3----------|----------------------------|
----------------------------|-----------------3----------|


----------------------------|-----0----------------------|
-----------0-----------0----|--------0-----0--------1----|
--0-----0-----0-----1-------|--1--------1--------2-------|
----------------------------|----------------------------|
----------------------------|-----------------0----------|
-----2-----------0----------|----------------------------|


-----3----------------------|-----0----------------------|
--------1-----1--------1----|--------1-----1--------1----|
--2--------2--------0-------|--0--------0--------2-------|
----------------------------|-----------------0----------|
-----------------3----------|----------------------------|
----------------------------|----------------------------|


-----3-----------2-----0----|-----------------0----------|
-----0--------0--0-----0----|-----3--------3--------3----|
--2--0-----0-----------0g---|-----0-----0--------0-------|
--------0-----------0-------|--0-----0-------------------|
----------------------------|----------------------------|
-----3-----------3-----3----|-----3----------------------|


--------------3--------3----|
--------------0--------0----|
--------0h-2--------0-------|
--0h-2-----------0----------|
----------------------------|
--------------3-------------|


--3L-3--------------3-----3-----------------0-------|
--0h-1--------------1-----0-----------------0-------|
--------------0-----------------------0-------------|
--------0-----------------------0-------------------|
----------------------------------------------------|
--3L-3--------------------3-------------------------|


----------------------------|
--3-----1h-0-----------1----|
-----0--------------2-------|
-----------------2----------|
--------------0-------------|
--3-----3-------------------|


----------------------------------------------------|
--0-----------------0-----0h-1--------------1-------|
--------------2-----------------------2-------------|
--------2-----------------------2-------------------|
--0-----------------------0L-0----------------------|
----------------------------------------------------|


----------------------------|--0-----0-------------------|
--0--------0--1--------1----|--1-----1-----------1-------|
--------2-----------0-------|-----0-----0-----2-----2----|
-----2-----------2----------|--------------0-------------|
--0-----------3-------------|----------------------------|
----------------------------|----------------------------|


--2-----------3-------------|--------------3--------3----|
-----1-----1--0-------------|--------------0--------0----|
--------2-----0-------------|--------0h-2--------0-------|
----------------------------|--0h-2-----------0----------|
----------------------------|----------------------------|
--------------3-------------|--------------3-------------|


--3L-3--------------3-----3-----------------0-------|
--0h-1--------------1-----0-----------------0-------|
--------------0-----------------------0-------------|
--------0-----------------------0-------------------|
----------------------------------------------------|
--3L-3--------------------3-------------------------|


----------------------------|
--3-----1h-0-----------1----|
-----0--------------2-------|
-----------------2----------|
--------------0-------------|
--3-----3-------------------|


----------------------------------------------------|
--0-----------------0-----0h-1--------------1-------|
--------------2-----------------------2-------------|
--------2-----------------------2-------------------|
--0-----------------------0L-0----------------------|
----------------------------------------------------|


----------------------------|--0-----0-------------------|
--0--------0--1--------1----|--1-----1-----------1-------|
--------2-----------0-------|-----0-----0-----2-----2----|
-----2-----------2----------|--------------0-------------|
--0-----------3-------------|----------------------------|
----------------------------|----------------------------|


--2-------------------------|----------------------------|
-----1-----1----------------|-----------------------1----|
--------2-----------0-------|--------------------2-------|
-----------------0-----0----|-----------------2----------|
----------------------------|--------------0-------------|
--------------3-------------|----------------------------|


--3-----3-----2-------------|--2-------------------------|
--1-----1-----1-----1-------|-----1-----1--------0-------|
-----2-----2--2--2-----2----|--------2--------0-----0----|
--------------0-------------|----------------------------|
----------------------------|----------------------------|
----------------------------|--------------3-------------|


----------------------------|--0-------------------------|
--------0-----------0-------|-----0-----0--------1-------|
-----0-----0-----0-----0----|--------0--------2-----2----|
----------------------------|----------------------------|
----------------------------|--------------0-------------|
--2-----------0-------------|----------------------------|


--3-------------------------|--2-----------0-------------|
-----1-----1--------1-------|-----1-----1--0-------------|
--------2--------2-----2----|--------2-----0-------------|
--------------0-------------|--------------2-------------|
----------------------------|--------------2-------------|
----------------------------|--------------0-------------|


----------------------------|----------------------------|
----------------------------|--2--2-----2-----1----------|
-----------------------0----|-----0-----0-----2-----2----|
--------------------2-------|--------2-----2-----2-------|
-----------------0----------|-----0-----------0----------|
----------------------------|----------------------------|


-----------------3----------|--3--2-----0----------------|
--1--------1-----0----------|--0--0-----0--3--------0----|
--------2-----2--0-----0----|--------------0-----0-------|
-----0--------------0-------|--------0--------0----------|
----------------------------|----------------------------|
-----------------3----------|-----3--------3-------------|


--------------3-------------||
--------------0-------------||
--------0h-2--0-------------||
--0h-2--------0-------------||
--------------2-------------||
--------------3-------------||

tab v pdf:
https://www.dropbox.com/s/uq6ymg101614j1w/Bobek%2CPavel_Vincent.pdf

 
»
Tvoje obľúbené položky
Tvoje obľúbené položky
»
Nové albumy interpreta
Nové albumy interpreta
8xCD Bobek Pavel Elpicka
8xCD Elpicka
5xCD Gott Karel Duety
5xCD Duety
2xCD Bobek Pavel Pratele
2xCD Pratele
2xCD Bobek Pavel V lucerne/dvd
2xCD V lucerne/dvd
2xCD Bobek Pavel Vsem, divkam../2cd
2xCD Vsem,
divkam../2cd
CD Bobek Pavel Singing ya ya youpi
CD Singing ya ya
youpi

»
Najnovšie videá
Najnovšie videá

Pavel Bobek Vincent.wmv

Pavel Bobek - Vincent

Karel Gott křest alba Dotek lásky - 2012

Vincent - Pavel Bobek / smlk /

Karel Gott - Vincent Van Gogh

Salvador Dali, Vincent van Gogh, Prázdný
»
Najnavštevovanejšie piesne
Najnavštevovanejšie piesne



home | interpreti | register piesní | cd & dvd shop | pripomienky/nápady | kontakt | ochrana údajov | inzercia
Copyright © Pavol Bacigál, 2000-2017. Všetky práva vyhradené.
TOPlist