Buty

piesne (138)

  texty (133) / preklady (0)
  akordy (73) / taby (1)
  noty (0) / slideshow (0)

články (94)
fotogaléria
diskusia
videá
diskografia
v obchode
odkazy
koncerty
sťahuj



pridaj vlastný článok

Buty:
Nejznámější šumavský festival proběhne již v sobotu - Festival Šumava Rocks se letos přehoupne do dvaadvacátého ročníku a návštěvníky přivítá n... - musicserver.cz


Buty:
Buty sa na bratislavský koncert pripravovali aj s hosťom - Česká kapela Buty, ktorá vystúpi vo štvrtok 16. apríla v bratislavskom Ateliéri Babylon, ...


Bijouterrier:
Zverejnili program festivalu Vrbovské Vetry - Organizátori festivalu Vrbovské vetry zverejnili kompletný program ôsmeho ročníka podujat...


Victor Bailey:
Žáček potvrdzuje Škvoreckého slová - Žáček potvrdzuje Škvoreckého slová Album ostravského multiinštrumentalistu odkrýva... - sme.sk


A Banquet:
Okoř se šťávou 2013: Mandrage, David Koller, Charlie Straight nebo UDG - Okoř se šťávou 2013: Mandrage, David Koller, Charlie Straight nebo UDG];" style="display:... - IREPORT


Marián Bango:
Koncerty v Praze, Brně a Ostravě budou odvracet konec světa - 13. listopadu 2012 7:00 PRAHA - Zároveň v pražské Incheba Areně, brněnské Flédě a ... - lidovky.cz


Buty:
Podívejte se na "Píseň práce" Buty - musicserver.cz


Buty:
Buty v klipu poslali na úřad práce Karla Gotta i Tomáše Kluse - ireport.cz


Buty:
Hrady.cz - Točník: V pátek vystoupila Vypsaná fixa, UDG i Buty - ireport.cz


Buty:
BEZEDNÁ NOC V MEDŮZE - Sobota, ČT 2, 18:55, pořad Medůza. Přesně to jsou souřadnice, kde najdete na televizní vl...


 

Buty

Fanúšikov: 20



A B C Č D E F G H CH I J K L Ľ M N O P Q R S Š T U V W X Y Z Ž



ako:
Buty - Píseň práce
Buty - Píseň práce

tlač

edituj
Pesničku videlo 2904 návštevníkov.

Kvalita tabov : bez hodnotenia
Hodnotilo ľudí: 0 ohodnoť aj ty
Prispievateľ:

tomfor
Kapo2

G C D
Q. E Q Q Q. E Q Q Q. E Q Q
E||----------------------|----------------------|----------------------|
B||----------------------|----------------------|----------------------|
G||----------------------|----------------------|----------------------|
D||----------------------|------------0----2----|--4------4--2----0----|
A||------------0----2----|--3------3------------|----------------------|
E||--3------3------------|----------------------|----------------------|


A G A
Q. E Q Q Q. E Q Q Q. E Q Q
----------------------|----------------------|----------------------|
----------------------|----------------------|----------------------|
----------------------|----------------------|----------------------|
----------------------|----------------------|------------0----2----|
--4------4--2----0----|------------0----2----|--4------4------------|
----------------------|--3------3------------|----------------------|


D C
Q. E Q Q Q. E Q Q
----------------------|----------------------||
----------------------|----------------------||
----------------------|----------------------||
--0------0------------|----------------------||
------------3----2----|--3------3--2----0----||
----------------------|----------------------||



Duration Legend
---------------
W - whole
H - half
Q - quarter
E - 8th
S - 16th
T - 32nd
X - 64th
. - note dotted
|-n-| - n-tuplets

 
»
Tvoje obľúbené položky
Tvoje obľúbené položky
»
Nové albumy interpreta
Nové albumy interpreta
CD Buty Duperele
CD Duperele
2xCD Billy Talent Billy talent iii -deluxe-
2xCD Billy talent iii
-deluxe-

»
Najnovšie videá
Najnovšie videá

Buty - Píseň práce, Moravské hrady.cz 20

Píseň práce - Buty - Sázavafest 2012

Žižkovská píseň práce (Ručičky, nebojte

Xindloviny na radiu City / Tomiova píseň

Píseň práce

Píseň práce
»
Najnavštevovanejšie piesne
Najnavštevovanejšie piesne
Nad stádem koní - akordy a text

Nad stádem koní PŘESNĚJI - akordy

Mám jednu ruku dlouhou (správna verze) - akordy a text

František - akordy a text

Mám jednu ruku dlouhou - akordy a text

Tata - akordy a text

Jednou ráno - akordy

Krtek - akordy a text

Píseň práce - akordy a text

Jednou ráno - akordy a text

viac




home | interpreti | register piesní | cd & dvd shop | pripomienky/nápady | kontakt | ochrana údajov | inzercia
Copyright © Pavol Bacigál, 2000-2017. Všetky práva vyhradené.
TOPlist