František Nedvěd

piesne (104)

  texty (95) / preklady (0)
  akordy (47) / taby (8)
  noty (0) / slideshow (0)

články (40)
fotogaléria
diskusia
videá
diskografia
v obchode
odkazy
koncerty
sťahuj



pridaj vlastný článok

Honza Nedvěd:
Před 20 lety přišlo na Nedvědy na Strahově bezmála 70 000 lidí! Dnes už spolu
slavné bratry neuvidíte…
- Bratři Jan a František Nedvědovi už spolu nezpívají. Bratři Jan a František Nedvědovi už... - blesk.cz


Cigánski Diabli:
Dnes sa začína šestnásty ročník Lodenice - Dnes sa začína šestnásty ročník Lodenice Festival / do nedele, Piešťany, Sĺňava  Už sa ... - sme.sk


Ahmed Má Hlad:
Festivalový víkend: bylo to krásné a nebylo toho dost - Prago Union | na serveru Lidovky.cz | aktuální zprávy 6. září 2013 7:00 | Lidovky.cz ... - lidovky.cz


František Nedvěd:
František Nedvěd poprvé na Stodole Michala Tučného - Koncert bratří Nedvědů, Beroun, 17.6.2012 (Foto: Jiří Konc / CountryWorld.cz) Kon... - countryworld.cz


Jaksi Taksi:
14. 5. 2011 Skiareál Horní Domky, Rokytnice nad Jizerou - 14. 5. 2011 Skiareál Horní Domky, Rokytnice nad Jizerou Již čtvrtý ročník tohoto stále...


Arena:
Lodenica: Program hlavnej scény známy! - Bleskovky - Kultura


Čechomor:
Prvé mená v programe festivalu Lodenica 2009 - folk.sk


František Nedvěd:
13. komnata Františka Nedvěda - eurotelevizia.sk


František Nedvěd:
František Nedvěd a Peoples spestria Bratislava-inline - František Nedvěd a Peoples spestria Bratislava-inline BRAT ISLAVA 28. augusta (SITA) - ...


Bokomara:
Lodenica: Obľúbené hudobné skupiny na jubileu nesmú chýbať - Lodenica: Obľúbené hudobné skupiny na jubileu nesmú chýbať Festival Zlatá Studňa LODEN...


 

František Nedvěd

Fanúšikov: 23



A B C Č D E F G H CH I J K L Ľ M N O P Q R S Š T U V W X Y Z Ž



ako:
František Nedvěd - Tvou vůni dávno znám
František Nedvěd - Tvou vůni dávno znám

tlač

edituj
Poznámka: přidán odkaz na pdf ver...

Pesničku videlo 5029 návštevníkov.

Kvalita tabov : bez hodnotenia
Hodnotilo ľudí: 0 ohodnoť aj ty
Prispievateľ:

petr554
  *** Autor textu: Nedvěd Trantišek
Title: Tvou vůni stále znám
Artist: Nedvěd František
Tempo = 121
Steel gtr

Legend
L - tied note
x - dead note
h - hammer on/pull off
b - bend
s - slide
~ - vibrato
g - ghost note
> - accentuated note
t - trill
M - palm mute
. - staccato
P - popping (bass)
S - slapping (bass)
+ - tapping
W - wide vibrato
< - fade in
w - whammy bar
= - tremolo picking
v - brush up
^ - brush down
V - pick stroke up
n - pick stroke down


E |--0L----------0-----------------0-------|
B |--------------------------1-------------|
G |--------------------0-------------------|
D |----------------------------------------|
A |----------------------------------------|
E |----------------------------------------|


--------------0-----------------0-------|
--------1-----------------1-------------|
--0-----------------0-------------------|
----------------------------------------|
----------------------------------------|
----------------------------------------|


--------------0-----------------0-------|
--------1-----------------1-------------|
--0-----------------0-------------------|
----------------------------------------|
----------------------------------------|
----------------------------------------|


--------------0-----------------0-------|
--------1-----------------1-------------|
--0-----------------0L----0-------------|
----------------------------------------|
----------------------------------------|
----------------------------------------|


--------------1-----------------1-------|
--------1-----------------1-------------|
--2L----2-----------2-------------------|
----------------------------------------|
----------------------------------------|
----------------------------------------|


--------------1-----------------1-------|
--------1-----------------1-------------|
--2L----2-----------2L----2L-2----------|
----------------------------------------|
----------------------------------------|
----------------------------------------|


----------------------------------------|
--------1-----3-----------1-----3-------|
--0-----------------0-------------------|
----------------------------------------|
----------------------------------------|
----------------------------------------|


----------------------------------------|
--------0-----3-----------0-----3-------|
--0-----------------0-------------------|
----------------------------------------|
----------------------------------------|
----------------------------------------|


--------------0-----------------0-------|
--------1-----------------1-------------|
--0-----------------0-------------------|
----------------------------------------|
----------------------------------------|
----------------------------------------|


--------------0-----------------0-------|
--------1-----------------1L-1----------|
--0-----------------0L----0-------------|
----------------------------------------|
----------------------------------------|
----------------------------------------|


--------------0-----------------0-------|
--------1-----------------1-------------|
--1-----------------1-------------------|
----------------------------------------|
----------------------------------------|
----------------------------------------|


--------------0-----------------0-------|
--------1-----------------1-------------|
--1-----------------1-------------------|
----------------------------------------|
----------------------------------------|
----------------------------------------|


--------------0-----------------0-------|
--------1-----------------1-------------|
--2-----------------2-------------------|
----------------------------------------|
----------------------------------------|
----------------------------------------|


--------------0-----------------0-------|
--------1-----------------1-------------|
--2-----------------2-------------------|
----------------------------------------|
----------------------------------------|
----------------------------------------|


--------------0-----------------0-------|
--------1-----------------1-------------|
--3-----------------3L----3-------------|
----------------------------------------|
----------------------------------------|
----------------------------------------|


--------------0-----------------0-------|
--------1-----------------1-------------|
--0-----------------0-------------------|
----------------------------------------|
----------------------------------------|
----------------------------------------|


--------------1-----------------1-------|
--------1-----------------1-------------|
--2-----------------2-------------------|
----------------------------------------|
----------------------------------------|
----------------------------------------|


--------------1-----------------1-------|
--------1-----------------1-------------|
--2-----------------2-------------------|
----------------------------------------|
----------------------------------------|
----------------------------------------|


--------------1-----------------1-------|
--------1-----------------1-------------|
--2-----------------2-------------------|
----------------------------------------|
----------------------------------------|
----------------------------------------|


--------------1-----------------1-------|
--------1-----------------1-------------|
--2-----------------2-------------------|
----------------------------------------|
----------------------------------------|
----------------------------------------|


----------------------------------------|
--------1-----3-----------1-----3-------|
--0-----------------0-------------------|
----------------------------------------|
----------------------------------------|
----------------------------------------|


----------------------------------------|
--------1-----3-----------1-----3-------|
--0-----------------0-------------------|
----------------------------------------|
----------------------------------------|
----------------------------------------|


----------------------------------------|
--------0-----3-----------0-----3-------|
--0-----------------0-------------------|
----------------------------------------|
----------------------------------------|
----------------------------------------|


----------------------------------------|
--------0-----3-----------0L----0-------|
--0-----------------0-----------7-------|
----------------------------------------|
----------------------------------------|
----------------------------------------|


--------------0-----------------0-------|
--------1-----------------1-------------|
--0-----------------0-------------------|
----------------------------------------|
----------------------------------------|
----------------------------------------|


--------------0-----------------0-------|
--------1-----------------1-------------|
--0-----------------0-------------------|
----------------------------------------|
----------------------------------------|
----------------------------------------|


--------------0-----------------0-------|
--------1-----------------1-------------|
--0-----------------0-------------------|
----------------------------------------|
----------------------------------------|
----------------------------------------|


--------------0-----------------0-------|
--------1-----------------1-------------|
--0-----------------0L----0-------------|
----------------------------------------|
----------------------------------------|
----------------------------------------|


--------------1-----------------1-------|
--------1-----------------1-------------|
--2-----------------2-------------------|
----------------------------------------|
----------------------------------------|
----------------------------------------|


--------------1-----------------1-------|
--------1-----------------1-------------|
--2-----------------2-------------------|
----------------------------------------|
----------------------------------------|
----------------------------------------|


--------------1-----------------1-------|
--------3-----------------3-------------|
--3-----------------3L----3-------------|
----------------------------------------|
----------------------------------------|
----------------------------------------|


--------------1-----------------1-------|
--------1-----------------1-------------|
--2-----------------2-------------------|
----------------------------------------|
----------------------------------------|
----------------------------------------|


----------------------------------------|
--------0-----3-----------0-----3-------|
--0-----------------0-------------------|
----------------------------------------|
----------------------------------------|
----------------------------------------|


----------------------------------------|
--------0L-0--3-----------0-----3-------|
--0L----0-----------0-------------------|
----------------------------------------|
----------------------------------------|
----------------------------------------|


--------------3-----------------3-------|
--0-----3-----------0-----3-------------|
----------------------------------------|
----------------------------------------|
----------------------------------------|
----------------------------------------|


--------------3-------------------------|
--0-----3-----------0L----0-----8-------|
--------------------------7L-7----------|
----------------------------------------|
----------------------------------------|
----------------------------------------|


--------------0-----------------0-------|
--------1-----------------1-------------|
--0-----------------0-------------------|
----------------------------------------|
----------------------------------------|
----------------------------------------|


--------------0-----------------0-------|
--------1-----------------1-------------|
--0-----------------0-------------------|
----------------------------------------|
----------------------------------------|
----------------------------------------|


--------------0-----------------0-------|
--------1-----------------1-------------|
--0-----------------0-------------------|
----------------------------------------|
----------------------------------------|
----------------------------------------|


--------------0-----------------0-------|
--------1-----------------1L-1----------|
--0-----------------0L----0-------------|
----------------------------------------|
----------------------------------------|
----------------------------------------|


--------------1-----------------1-------|
--------1-----------------1-------------|
--2-----------------2-------------------|
----------------------------------------|
----------------------------------------|
----------------------------------------|


--------------1-----------------1-------|
--------1-----------------1L-1----------|
--2-----------------2L----2-------------|
----------------------------------------|
----------------------------------------|
----------------------------------------|


----------------------------------------|
--------1-----3-----------1-----3-------|
--0-----------------0-------------------|
----------------------------------------|
----------------------------------------|
----------------------------------------|


----------------------------------------|
--------0-----3-----------0-----3-------|
--0-----------------0-------------------|
----------------------------------------|
----------------------------------------|
----------------------------------------|


--------------0-----------------0-------|
--------1-----------------1-------------|
--0-----------------0-------------------|
----------------------------------------|
----------------------------------------|
----------------------------------------|


--------------0-----------------0-------|
--------1-----------------1-------------|
--3-----------------3-------------------|
----------------------------------------|
----------------------------------------|
----------------------------------------|


--------------1-----------------1-------|
--------1-----------------1-------------|
--2-----------------2-------------------|
----------------------------------------|
----------------------------------------|
----------------------------------------|


--------------1-----------------1-------|
--------1-----------------1-------------|
--1-----------------1-------------------|
----------------------------------------|
----------------------------------------|
----------------------------------------|


--------------0-----------------0-------|
--------1-----------------1-------------|
--0-----------------0-------------------|
----------------------------------------|
----------------------------------------|
----------------------------------------|


--------------0-----------------0L-0----|
--------1-----------------1L----1-------|
--0-----------------0L----0-------------|
----------------------------------------|
----------------------------------------|
----------------------------------------|


--------------1-----------------1-------|
--------1-----------------1L-1----------|
--2-----------------2L----2-------------|
----------------------------------------|
----------------------------------------|
----------------------------------------|


--------------3-----------------3-------|
--0-----3-----------0-----3-------------|
----------------------------------------|
----------------------------------------|
----------------------------------------|
----------------------------------------|


--------------0-----------------0-------|
--------1-----------------1-------------|
--0-----------------0-------------------|
----------------------------------------|
----------------------------------------|
----------------------------------------|


--------------0-----------------0-------|
--------1-----------------1-------------|
--0-----------------0-------------------|
----------------------------------------|
----------------------------------------|
----------------------------------------|


----------------------------------------|
--------1-----3-----------1L-1--3-------|
--0-----------------0L----0-------------|
----------------------------------------|
----------------------------------------|
----------------------------------------|


----------------------------------------|
--------0L----0L-0--------------0-------|
--0L----0L----0-----0L----0-------------|
--------------0L-0--------0L-0----------|
----------------------------------------|
----------------------------------------|


--------------0-----------------0-------|
--------1-----------------1-------------|
--0-----------------0-------------------|
----------------------------------------|
----------------------------------------|
----------------------------------------|


--------------0-----------------0-------|
--------1-----------------1-------------|
--0-----------------0-------------------|
----------------------------------------|
----------------------------------------|
----------------------------------------|


--------------0-----------------0-------|
--------1-----------------1-------------|
--0-----------------0-------------------|
----------------------------------------|
----------------------------------------|
----------------------------------------|


--------------0-----------------0-------|
--------1-----------------1-------------|
--0-----------------0L----0-------------|
----------------------------------------|
----------------------------------------|
----------------------------------------|


--------------1-----------------1-------|
--------1-----------------1-------------|
--2-----------------2-------------------|
----------------------------------------|
----------------------------------------|
----------------------------------------|


--------------1-----------------1-------|
--------1-----------------1-------------|
--2-----------------2-------------------|
----------------------------------------|
----------------------------------------|
----------------------------------------|


--------------1-----------------1-------|
--------3-----------------3-------------|
--3-----------------3L----3-------------|
----------------------------------------|
----------------------------------------|
----------------------------------------|


--------------1-----------------1-------|
--------1-----------------1-------------|
--2-----------------2-------------------|
----------------------------------------|
----------------------------------------|
----------------------------------------|


----------------------------------------|
--------0-----3-----------0-----3-------|
--0-----------------0-------------------|
----------------------------------------|
----------------------------------------|
----------------------------------------|


----------------------------------------|
--------0L-0--3-----------0-----3-------|
--0L----0-----------0-------------------|
----------------------------------------|
----------------------------------------|
----------------------------------------|


--------------3-----------------3-------|
--0-----3-----------0-----3-------------|
----------------------------------------|
----------------------------------------|
----------------------------------------|
----------------------------------------|


--------------3-------------------------|
--0-----3-----------0L----0-------------|
--------------------------------0-------|
--------------------------0L-0----------|
----------------------------------------|
----------------------------------------|


----------------------------------------|
--------------5-----------------5-------|
--------5-----------------5-------------|
--5-----------------5-------------------|
----------------------------------------|
----------------------------------------|


----------------------------------------|
--------------5-----------------5-------|
--------5-----------------5-------------|
--5-----------------5-------------------|
----------------------------------------|
----------------------------------------|


----------------------------------------|
--------------5-----------------5-------|
--------5-----------------5-------------|
--5-----------------5-------------------|
----------------------------------------|
----------------------------------------|


----------------------------------------|
--------------5-----------------5-------|
--------5-----------------5--5----------|
--5-----------------5-------------------|
----------------------------------------|
----------------------------------------|


--------------1-----------------1-------|
--------1-----------------1-------------|
--2-----------------2-------------------|
----------------------------------------|
----------------------------------------|
----------------------------------------|


--------------1-----------------1-------|
--------1-----------------1L-1----------|
--2-----------------2L----2-------------|
----------------------------------------|
----------------------------------------|
----------------------------------------|


----------------------------------------|
--------1-----3-----------1-----3-------|
--0-----------------0-------------------|
----------------------------------------|
----------------------------------------|
----------------------------------------|


----------------------------------------|
--------0-----3-----------0-----3-------|
--0-----------------0-------------------|
----------------------------------------|
----------------------------------------|
----------------------------------------|


--------------0-----------------0-------|
--------1-----------------1-------------|
--0-----------------0-------------------|
----------------------------------------|
----------------------------------------|
----------------------------------------|


--------------0-----------------0-------|
--------1-----------------1-------------|
--3-----------------3-------------------|
----------------------------------------|
----------------------------------------|
----------------------------------------|


--------------1-----------------1-------|
--------1-----------------1-------------|
--2-----------------2-------------------|
----------------------------------------|
----------------------------------------|
----------------------------------------|


--------------1-----------------1-------|
--------1-----------------1-------------|
--1-----------------1-------------------|
----------------------------------------|
----------------------------------------|
----------------------------------------|


--------------0-----------------0-------|
--------1-----------------1-------------|
--0-----------------0-------------------|
----------------------------------------|
----------------------------------------|
----------------------------------------|


--------------0-----------------0L-0----|
--------1-----------------1L----1-------|
--0-----------------0L----0-------------|
----------------------------------------|
----------------------------------------|
----------------------------------------|


--------------1-----------------1-------|
--------1-----------------1L-1----------|
--2-----------------2L----2-------------|
----------------------------------------|
----------------------------------------|
----------------------------------------|


--------------3-----------------3-------|
--0-----3-----------0-----3-------------|
----------------------------------------|
----------------------------------------|
----------------------------------------|
----------------------------------------|


--------------0-----------------0-------|
--------1-----------------1-------------|
--0-----------------0-------------------|
----------------------------------------|
----------------------------------------|
----------------------------------------|


--------------0-----------------0-------|
--------1-----------------1-------------|
--0-----------------0-------------------|
----------------------------------------|
----------------------------------------|
----------------------------------------|


----------------------------------------|
--------1-----3-----------1L-1--3-------|
--0-----------------0L----0-------------|
----------------------------------------|
----------------------------------------|
----------------------------------------|


----------------------------------------|
--------0L----0L-0--------------0-------|
--0L----0L----0-----0L----0-------------|
--------------0L-0--------0L-0----------|
----------------------------------------|
----------------------------------------|


--------------0-----------------0-------|
--------1-----------------1-------------|
--0-----------------0-------------------|
----------------------------------------|
----------------------------------------|
----------------------------------------|


--------------0-----------------0-------|
--------1-----------------1L-1----------|
--0-----------------0L----0-------------|
----------------------------------------|
----------------------------------------|
----------------------------------------|


--------------0-----------------0-------|
--------1-----------------1-------------|
--1-----------------1-------------------|
----------------------------------------|
----------------------------------------|
----------------------------------------|


--------------0-----------------0-------|
--------1-----------------1-------------|
--1-----------------1-------------------|
----------------------------------------|
----------------------------------------|
----------------------------------------|


--------------0-----------------0-------|
--------1-----------------1-------------|
--2-----------------2-------------------|
----------------------------------------|
----------------------------------------|
----------------------------------------|


--------------0-----------------0-------|
--------1-----------------1-------------|
--2-----------------2-------------------|
----------------------------------------|
----------------------------------------|
----------------------------------------|


--------------0-----------------0-------|
--------1-----------------1-------------|
--3-----------------3L----3-------------|
----------------------------------------|
----------------------------------------|
----------------------------------------|


--------------0-----------------0-------|
--------1-----------------1-------------|
--0-----------------0-------------------|
----------------------------------------|
----------------------------------------|
----------------------------------------|


--------------1-----------------1-------|
--------1-----------------1-------------|
--2-----------------2-------------------|
----------------------------------------|
----------------------------------------|
----------------------------------------|


--------------1-----------------1-------|
--------1-----------------1-------------|
--2-----------------2-------------------|
----------------------------------------|
----------------------------------------|
----------------------------------------|


--------------1-----------------1-------|
--------1-----------------1-------------|
--2-----------------2-------------------|
----------------------------------------|
----------------------------------------|
----------------------------------------|


--------------1-----------------1-------|
--------1-----------------1-------------|
--2-----------------2-------------------|
----------------------------------------|
----------------------------------------|
----------------------------------------|


----------------------------------------|
--------1-----3-----------1-----3-------|
--0-----------------0-------------------|
----------------------------------------|
----------------------------------------|
----------------------------------------|


----------------------------------------|
--------1-----3-----------1-----3-------|
--0-----------------0-------------------|
----------------------------------------|
----------------------------------------|
----------------------------------------|


----------------------------------------|
--------0-----3-----------0-----3-------|
--0-----------------0-------------------|
----------------------------------------|
----------------------------------------|
----------------------------------------|


----------------------------------------|
--------0-----3-----------0L----0-------|
--0-----------------0-------------------|
--------------------------------0-------|
----------------------------------------|
----------------------------------------|


--------------1-----------------1-------|
--------1-----------------1-------------|
--2-----------------2-------------------|
----------------------------------------|
----------------------------------------|
----------------------------------------|


--------------1-----------------1-------|
--------1-----------------1L-1----------|
--2-----------------2L----2-------------|
----------------------------------------|
----------------------------------------|
----------------------------------------|


----------------------------------------|
--------1-----3-----------1-----3-------|
--0-----------------0-------------------|
----------------------------------------|
----------------------------------------|
----------------------------------------|


----------------------------------------|
--------0-----3-----------0-----3-------|
--0-----------------0-------------------|
----------------------------------------|
----------------------------------------|
----------------------------------------|


--------------0-----------------0-------|
--------1-----------------1-------------|
--0-----------------0-------------------|
----------------------------------------|
----------------------------------------|
----------------------------------------|


--------------0-----------------0-------|
--------1-----------------1-------------|
--3-----------------3-------------------|
----------------------------------------|
----------------------------------------|
----------------------------------------|


--------------1-----------------1-------|
--------1-----------------1-------------|
--2-----------------2-------------------|
----------------------------------------|
----------------------------------------|
----------------------------------------|


--------------1-----------------1-------|
--------1-----------------1-------------|
--1-----------------1-------------------|
----------------------------------------|
----------------------------------------|
----------------------------------------|


--------------0-----------------0-------|
--------1-----------------1-------------|
--0-----------------0-------------------|
----------------------------------------|
----------------------------------------|
----------------------------------------|


--------------0-----------------0L-0----|
--------1-----------------1L----1-------|
--0-----------------0L----0-------------|
----------------------------------------|
----------------------------------------|
----------------------------------------|


--------------1-----------------1-------|
--------1-----------------1L-1----------|
--2-----------------2L----2-------------|
----------------------------------------|
----------------------------------------|
----------------------------------------|


--------------3-----------------3-------|
--0-----3-----------0-----3-------------|
----------------------------------------|
----------------------------------------|
----------------------------------------|
----------------------------------------|


--------------0-----------------0-------|
--------1-----------------1-------------|
--0-----------------0-------------------|
----------------------------------------|
----------------------------------------|
----------------------------------------|


--------------0-----------------0-------|
--------1-----------------1-------------|
--3-----------------3-------------------|
----------------------------------------|
----------------------------------------|
----------------------------------------|


--------------1-----------------1-------|
--------1-----------------1-------------|
--2-----------------2-------------------|
----------------------------------------|
----------------------------------------|
----------------------------------------|


--------------1-----------------1-------|
--------1-----------------1-------------|
--1-----------------1-------------------|
----------------------------------------|
----------------------------------------|
----------------------------------------|


--------------0-----------------0-------|
--------1-----------------1-------------|
--0-----------------0-------------------|
----------------------------------------|
----------------------------------------|
----------------------------------------|


--------------0-----------------0L-0----|
--------1-----------------1L----1-------|
--0-----------------0L----0-------------|
----------------------------------------|
----------------------------------------|
----------------------------------------|


--------------1-----------------1-------|
--------1-----------------1L-1----------|
--2-----------------2L----2-------------|
----------------------------------------|
----------------------------------------|
----------------------------------------|


--------------3-----------------3-------|
--0-----3-----------0-----3-------------|
----------------------------------------|
----------------------------------------|
----------------------------------------|
----------------------------------------|


--------------0-----------------0-------|--0----|----|----||
--------1--------------1----------------|--1----|----|----||
--0L----0-----------0L-0-----------0L---|--0----|----|----||
----------------------------------------|-------|----|----||
----------------------------------------|-------|----|----||
----------------------------------------|-------|----|----||


tab v pdf pro 2 kytary:
https://www.dropbox.com/s/lsmcwh0y5hzfxlc/
FrantisekNedved-TvouVuni.pdf


2 kytara:
E |----------------------------------------|
B |--------------5L-5--8-----5-------------|
G |--------5--------------5--------5-------|
D |--5-------------------------------------|
A |----------------------------------------|
E |----------------------------------------|


----------------------------------------|
--------------5-----8-----5-------------|
--------5L----5L-5--------------5-------|
--5-------------------------------------|
----------------------------------------|
----------------------------------------|


----------------------------------------|
--------------5-----8-----5L-5----------|
--------5--------5L-5L-5--------5-------|
--5-------------------------------------|
----------------------------------------|
----------------------------------------|


----------------------------------------|
--------------5-----8-----5-------------|
--------5--------5L-5L-5-----5--5-------|
--5-------------------------------------|
----------------------------------------|
----------------------------------------|


--------------------1-------------------|
--------------1-----------1L-1----------|
--------2L----2L-2--------------2-------|
--3L----3L----3L-3L-3L----3-------------|
----------------------------------------|
----------------------------------------|


--------------------1-------------------|
--------------1-----------1L----1-------|
--------2L----2-----------------2-------|
--3L----3L----3L----3L----3-------------|
----------------------------------------|
----------------------------------------|


----------------------------------------|
----------------------------------------|
--------5-----8-----5-----------5-------|
--5-----------------------5-------------|
----------------------------------------|
----------------------------------------|


--------------------3-------------------|
--------0L----0L-0--------3-----0-------|
--0L----0L----0L-0L-0L----0-------------|
--------------0-------------------------|
----------------------------------------|
----------------------------------------|


----------------------------------------|
--------------5-----8-----5L-5----------|
--------5L----5L----5L----5-----5-------|
--5-------------------------------------|
----------------------------------------|
----------------------------------------|


----------------------------------------|
--------------5-----8--8--5-------------|
--------5L----5L----5L-5L-5-----5-------|
--5-------------------------------------|
----------------------------------------|
----------------------------------------|


----------------------------------------|
--------------5-----9-----5-------------|
--------5-----------------------5-------|
--6-------------------------------------|
----------------------------------------|
----------------------------------------|


----------------------------------------|
--------------5-----9-----5-------------|
--------5-----------------------5-------|
--6-------------------------------------|
----------------------------------------|
----------------------------------------|


--------------0-----5-------------------|
--------1L----1-----------5L-5L-5-------|
--2L----2L----2L----2L----2-----5L-5----|
----------------------------------------|
----------------------------------------|
----------------------------------------|


--------------------5L-5----------------|
--------------5-----------5L----5L-5----|
--------5L----5L-5L-5-----------5-------|
--7L----7L----7L-7L-7L-7L-7-------------|
----------------------------------------|
----------------------------------------|


----------------------------------------|
--------------5-----8-----5L-5----------|
--------5L----5-----------------5-------|
--5L----5L----5L----5L----5-------------|
----------------------------------------|
----------------------------------------|


----------------------------------------|
--------------5-----8-----5-------------|
--------5-----------------------5-------|
----------------------------------------|
--0-------------------------------------|
----------------------------------------|


--------------------1L-1----------------|
--------------1-----------1-----1-------|
--------2L----2L----2-----------2-------|
--3L----3L----3L----3L-3L-3-------------|
----------------------------------------|
----------------------------------------|


--------------------1-------------------|
--------------1-----------1-------------|
--------2L----2L-2--------------2-------|
--3L----3L----3L-3L-3L----3-------------|
----------------------------------------|
----------------------------------------|


--------------------1-------------------|
--------------1-----------1L-1----------|
--------2L----2L-2--------------2-------|
--3L----3L----3L-3L-3L----3-------------|
----------------------------------------|
----------------------------------------|


--------------------1-------------------|
--------------1-----------1L-1L-1L-1----|
--------2L----2L----2-----------2-------|
--3L----3L----3L----3L----3-------------|
----------------------------------------|
----------------------------------------|


----------------------------------------|
--------1L----1-------------------------|
--0L----0L----0-----0L----0-------------|
--------------0-----------0L----0-------|
--------------------------------3-------|
----------------------------------------|


----------------------------------------|----------------------|
--------1L----1-------------------------|----------------------|
--0L----0L----0L-0--0L----0-------------|-----4L-4--------4----|
--------------0L-0--------0L----0-------|-----------5----------|
--------------------------------3-------|--------5-----5-------|
----------------------------------------|--3L-3L-3L-3L-3-------|


--------------------3L-3----------------|
--------0L----0L-0L-0-----3L-3L-3-------|
--0L----0L----0L-0L-0L-0L-0-----4-------|
--------------0-------------------------|
----------------------------------------|
----------------------------------------|


--------------------3-------------------|
--------------5-----------5-----5-------|
--------5L----5L----5L----5-----5-------|
--5-------------------------------------|
----------------------------------------|
----------------------------------------|


--------------------3-------------------|
--------------5-----------5-------------|
--------5L----5L----5L----5-----5-------|
--5-------------------------------------|
----------------------------------------|
----------------------------------------|


--------------------3-------------------|
--------------5L-5--------5-------------|
--------5L----5L-5L-5L----5-----5-------|
--5-------------------------------------|
----------------------------------------|
----------------------------------------|


--------------------3-------------------|
--------------5-----------5-------------|
--------5L----5L----5L----5-----5-------|
--5-------------------------------------|
----------------------------------------|
----------------------------------------|


--------------------1-------------------|
--------------1-----------1L-1----------|
--------2L----2-----------------2-------|
--3L----3L----3L----3L----3-------------|
----------------------------------------|
----------------------------------------|


--------------------1L-1----------------|
--------------1-----------1-------------|
--------2L----2L----2-----------2-------|
--3L----3L----3L----3L-3L-3-------------|
----------------------------------------|
----------------------------------------|


--------------------1-------------------|
--------------3-----------3L----3-------|
--------3L----3-----------------3L-3----|
--3L----3L----3L----3L----3-------------|
----------------------------------------|
----------------------------------------|


--------------------1-------------------|
--------------1-----------1L----1-------|
--------2L----2L-2--------------2-------|
--3L----3L----3L-3L-3L-3L-3-------------|
----------------------------------------|
----------------------------------------|


----------------------------------------|
--------0L----0-----------------0-------|
--0L----0L----0-----0L----0-------------|
--------------0-----------0L-0----------|
----------------------------------------|
----------------------------------------|


--------------------3-------------------|
--------0L----0L-0--------3-----0-------|
--0L----0L----0L-0L-0L----0-------------|
--------------0-------------------------|
----------------------------------------|
----------------------------------------|


----------------------------------------|
--------0L----0-----------------0-------|
--0L----0L----0-----0L----0-------------|
--------------0-----------0L-0----------|
----------------------------------------|
----------------------------------------|


----------------------------------------|
--------0L----0L----0L-0--------0-------|
--0L----0L----0-----0L-0L-0-------------|
--------------0-----------0L-0--0L-0----|
----------------------------------------|
----------------------------------------|


--------------------3L----3-------------|
--------------5-----------5L-5L-5-------|
--------5L----5L----5L----5L-5--5-------|
--5-------------------------------------|
----------------------------------------|
----------------------------------------|


--------------------3-------------------|
--------------5-----------5-----1-------|
--------5L----5-------------------------|
--5L----5L----5L----5L----5-------------|
----------------------------------------|
----------------------------------------|


--------------------3-------------------|-----------3----------|
--------------5-----------5-------------|--------5-----5-------|
--------5L----5L----5L----5-----5-------|-----5L-5L-5L-5--5----|
--5-------------------------------------|--5-------------------|
----------------------------------------|----------------------|
----------------------------------------|----------------------|


--------------------1-------------------|
--------------1-----------1-------------|
--------2L----2-----------------2-------|
--3L----3L----3L----3L----3-------------|
----------------------------------------|
----------------------------------------|


--------------------1L-1----------------|
--------------1-----------1L----1L-1----|
--------2L----2L----2-----------2-------|
--3L----3L----3L----3L-3L-3-------------|
----------------------------------------|
----------------------------------------|


--------------------3-------------------|
--------------3-----------3L----3-------|
--------5L----5L----5L----5-----5L-5----|
--5-------------------------------------|
----------------------------------------|
----------------------------------------|


--------------------3L-3----------------|
--------------3L----3-----3L-3L-3-------|
--------5-----------------------4-------|
--5L----5L----5L----5L-5L-5-------------|
----------------------------------------|
----------------------------------------|


--------------------3-------------------|
--------------5-----------5-------------|
--------5L----5L----5L----5-----5-------|
--5-------------------------------------|
----------------------------------------|
----------------------------------------|


--------------------3-------------------|
--------------5-----------5-------------|
--------5L----5L----5-----------5-------|
----------------------------------------|
----------------------------------------|
--6-------------------------------------|


--------------------5L-5----------------|
--------------6L----6-----6-------------|
--------5L----5L----5L-5L-5-----5-------|
----------------------------------------|
--0-------------------------------------|
----------------------------------------|


--------------1-----------1-------------|
--------1-----------------------1-------|
--------------------1-------------------|
----------------------------------------|
----------------------------------------|
--4-------------------------------------|


--------------------3-------------------|
--------------5-----------5L-5----------|
--------5L----5L----5L----5-----5-------|
--5-------------------------------------|
----------------------------------------|
----------------------------------------|


--------------------3-------------------|
--------------5-----------5-------------|
--------5L----5L----5L----5L-5--5-------|
--5-------------------------------------|
----------------------------------------|
----------------------------------------|


--------------------1L-1----------------|
--------------1-----------1L-1--1-------|
--------2L----2L----2-----------2-------|
--3L----3L----3L----3L-3L-3-------------|
----------------------------------------|
----------------------------------------|


----------------------------------------|
--------0L----0L----0-----------0-------|
--0L----0L----0-----0L-0L-0-------------|
--------------0-----------0L-0L-0-------|
----------------------------------------|
----------------------------------------|


--------------------3-------------------|
--------------5-----------5-------------|
--------5L----5L----5L----5-----5-------|
--5-------------------------------------|
----------------------------------------|
----------------------------------------|


--------------------3L----3-------------|
--------------5-----------5L-5L-5L-5----|
--------5L----5L----5L----5L-5--5-------|
--5-------------------------------------|
----------------------------------------|
----------------------------------------|


--------------------3L----3-------------|
--------------3-----------3L-3----------|
--------5L----5-----------------5-------|
--5L----5L----5L----5L----5L-5----------|
----------------------------------------|
----------------------------------------|


----------------------------------------|
--------0L----0-----------------0-------|
--0L----0L----0-----0L----0L----0-------|
--------------0-----------0L----0L-0----|
----------------------------------------|
----------------------------------------|


--------------------3-------------------|
--------------5-----------5-----5-------|
--------5L----5L----5L----5-----5-------|
--5-------------------------------------|
----------------------------------------|
----------------------------------------|


--------------------3-------------------|
--------------5-----------5-------------|
--------5L----5L----5L----5-----5-------|
--5-------------------------------------|
----------------------------------------|
----------------------------------------|


--------------------3-------------------|
--------------5L-5--------5-------------|
--------5L----5L-5L-5L----5-----5-------|
--5-------------------------------------|
----------------------------------------|
----------------------------------------|


--------------------3-------------------|
--------------5-----------5-------------|
--------5L----5L----5L----5-----5-------|
--5-------------------------------------|
----------------------------------------|
----------------------------------------|


--------------------1-------------------|
--------------1-----------1L-1----------|
--------2L----2-----------------2-------|
--3L----3L----3L----3L----3-------------|
----------------------------------------|
----------------------------------------|


--------------------1L-1----------------|
--------------1-----------1-------------|
--------2L----2L----2-----------2-------|
--3L----3L----3L----3L-3L-3-------------|
----------------------------------------|
----------------------------------------|


--------------------1-------------------|
--------------3-----------3L----3-------|
--------3L----3-----------------3L-3----|
--3L----3L----3L----3L----3-------------|
----------------------------------------|
----------------------------------------|


--------------------1-------------------|
--------------1-----------1L----1-------|
--------2L----2L-2--------------2-------|
--3L----3L----3L-3L-3L-3L-3-------------|
----------------------------------------|
----------------------------------------|


----------------------------------------|
--------0L----0-----------------0-------|
--0L----0L----0-----0L----0-------------|
--------------0-----------0L-0----------|
----------------------------------------|
----------------------------------------|


--------------------3-------------------|
--------0L----0L-0--------3-----0-------|
--0L----0L----0L-0L-0L----0-------------|
--------------0-------------------------|
----------------------------------------|
----------------------------------------|


----------------------------------------|
--------0L----0-----------------0-------|
--0L----0L----0-----0L----0-------------|
--------------0-----------0L-0----------|
----------------------------------------|
----------------------------------------|


----------------------------------------|
--------0L----0L----0-----------0-------|
--0L----0L----0-----0L-0L-0-------------|
--------------0-----------0L-0L-0L-0----|
----------------------------------------|
----------------------------------------|


--------------------3L----3-------------|
--------------5-----------5L-5L-5-------|
--------5L----5L----5L----5L-5--5-------|
--5-------------------------------------|
----------------------------------------|
----------------------------------------|


--------------------3-------------------|
--------------5-----------5-------------|
--------5L----5-----------------5-------|
--5L----5L----5L----5L----5-------------|
----------------------------------------|
----------------------------------------|


--------------------3-------------------|-----------3----------|
--------------5-----------5-------------|--------5-----5-------|
--------5L----5L----5L----5-----5-------|-----5L-5L-5L-5--5----|
--5-------------------------------------|--5-------------------|
----------------------------------------|----------------------|
----------------------------------------|----------------------|


--------------------1-------------------|
--------------1-----------1-------------|
--------2L----2-----------------2-------|
--3L----3L----3L----3L----3-------------|
----------------------------------------|
----------------------------------------|


--------------------1L-1----------------|
--------------1-----------1L----1L-1----|
--------2L----2L----2-----------2-------|
--3L----3L----3L----3L-3L-3-------------|
----------------------------------------|
----------------------------------------|


--------------------3-------------------|
--------------3-----------3L----3-------|
--------5L----5L----5L----5-----5L-5----|
--5-------------------------------------|
----------------------------------------|
----------------------------------------|


--------------------3L-3----------------|
--------0L----0L----0-----3L-3L-3-------|
--0L----0-----------------------4-------|
--------------0L----0L-0L-0-------------|
----------------------------------------|
----------------------------------------|


--------------------3-------------------|
--------------5-----------5-------------|
--------5L----5L----5L----5-----5-------|
--5-------------------------------------|
----------------------------------------|
----------------------------------------|


--------------------3-------------------|
--------------5-----------5-------------|
--------5L----5L----5-----------5-------|
----------------------------------------|
----------------------------------------|
--6-------------------------------------|


--------------------5L-5----------------|
--------------6L----6-----6-------------|
--------5-----------------------5-------|
----------------------------------------|
----------------------------------------|
--5L----5L----5L----5L-5L-5-------------|


--------------------4-------------------|
--------------6-----------6-------------|
--------5L----5-----------------5-------|
----------------------------------------|
----------------------------------------|
--4-------------------------------------|


--------------------3-------------------|
--------------5-----------5L-5----------|
--------5L----5L----5L----5-----5-------|
--5-------------------------------------|
----------------------------------------|
----------------------------------------|


--------------------3-------------------|
--------------5-----------5-------------|
--------5L----5L----5L----5L-5--5-------|
--5-------------------------------------|
----------------------------------------|
----------------------------------------|


--------------------1L-1----------------|
--------------1-----------1L-1--1-------|
--------2L----2L----2-----------2-------|
--3L----3L----3L----3L-3L-3-------------|
----------------------------------------|
----------------------------------------|


----------------------------------------|
--------0L----0L----0-----------0-------|
--0L----0L----0-----0L-0----------------|
--------------0-----------0L-0L-0-------|
----------------------------------------|
----------------------------------------|


--------------------3-------------------|
--------------5-----------5-------------|
--------5L----5L----5L----5-----5-------|
--5-------------------------------------|
----------------------------------------|
----------------------------------------|


--------------------3L----3-------------|
--------------5-----------5L-5L-5L-5----|
--------5L----5L----5L----5L-5--5-------|
--5-------------------------------------|
----------------------------------------|
----------------------------------------|


--------------------3L----3-------------|
--------------3-----------3L-3----------|
--------5L----5-----------------5-------|
--5L----5L----5L----5L----5L-5----------|
----------------------------------------|
----------------------------------------|


----------------------------------------|
--------0L----0-----------------0-------|
--0L----0L----0-----0L----0L----0-------|
--------------0-----------0L----0L-0----|
----------------------------------------|
----------------------------------------|


--------------------3-------------------|
--------------5-----------5L-5----------|
--------5L----5L----5L----5-----5-------|
--5-------------------------------------|
----------------------------------------|
----------------------------------------|


--------------------3L-3----------------|
--------------5L----5-----5-------------|
--------5L----5L----5L-5L-5-----5-------|
--5-------------------------------------|
----------------------------------------|
----------------------------------------|


--------------------4-------------------|
--------------5-----------5-------------|
--------5-----------------------5-------|
----------------------------------------|
----------------------------------------|
--4-------------------------------------|


--------------------4-------------------|
--------------5-----------5-------------|
--------5-----------------------5-------|
----------------------------------------|
----------------------------------------|
--4-------------------------------------|


--------------------5-------------------|
--------------5-----------5L-5L-5-------|
--------5L----5L----5L----5-----5L-5----|
----------------------------------------|
--0-------------------------------------|
----------------------------------------|


--------------------5L-5----------------|
--------------5-----------5L----5L-5----|
--------5L----5L-5L-5-----------5-------|
----------------------------------------|
--0L----0L----0L-0L-0L-0L-0-------------|
----------------------------------------|


--------------------3-------------------|
--------------5-----------5L-5----------|
--------5L----5-----------------5-------|
--------5L----5L----5L----5-------------|
----------------------------------------|
--3-------------------------------------|


--------------------3-------------------|
--------------5-----------5-------------|
--------5-----------------------5-------|
----------------------------------------|
--1-------------------------------------|
----------------------------------------|


--------------------1L-1----------------|
--------------1-----------1-----1-------|
--------2L----2L----2-----------2-------|
----------------------------------------|
----------------------------------------|
--1L----1L----1L----1L-1L-1-------------|


--------------------1-------------------|
--------------1-----------1-------------|
--------2L----2L-2--------------2-------|
----------------------------------------|
----------------------------------------|
--1L----1L----1L-1L-1L----1-------------|


--------------------1-------------------|
--------------1-----------1L-1----------|
--------2L----2L-2--------------2-------|
--3L----3L----3L-3L-3L----3-------------|
----------------------------------------|
----------------------------------------|


--------------------1-------------------|
--------------1-----------1L-1L-1L-1----|
--------2L----2L----2-----------2-------|
--3L----3L----3L----3L----3-------------|
----------------------------------------|
----------------------------------------|


----------------------------------------|
--------1L----1-------------------------|
--0L----0L----0-----0L----0-------------|
--------------0-----------0L----0-------|
--------------------------------3-------|
----------------------------------------|


----------------------------------------|----------------------|
--------1L----1-------------------------|-----0L-0--------0----|
--0L----0L----0L-0--0L----0-------------|-----------0----------|
--------------0L-0--------0L----0-------|--------0-----0-------|
--------------------------------3-------|----------------------|
----------------------------------------|--3L-3L-3L-3L-3-------|


--------------------3L-3----------------|
--------0L----0L-0L-0-----3L-3L-3-------|
--0L----0L----0L-0L-0L-0L-0-----4-------|
--------------0-------------------------|
----------------------------------------|
----------------------------------------|


--------------------1-------------------|
--------------1-----------1-------------|
--------2L----2-----------------2-------|
--3L----3L----3L----3L----3-------------|
----------------------------------------|
----------------------------------------|


--------------------1L-1----------------|
--------------1-----------1L----1L-1----|
--------2L----2L----2-----------2-------|
--3L----3L----3L----3L-3L-3-------------|
----------------------------------------|
----------------------------------------|


--------------------3-------------------|
--------------3-----------3L----3-------|
--------5L----5L----5L----5-----5L-5----|
--5-------------------------------------|
----------------------------------------|
----------------------------------------|


--------------------3L-3----------------|
--------------3L----3-----3L-3L-3-------|
--------4-----------------------4-------|
----------------------------------------|
----------------------------------------|
--3L----3L----3L----3L-3L-3-------------|


--------------------3-------------------|
--------------5-----------5-------------|
--------5L----5L----5L----5-----5-------|
--5-------------------------------------|
----------------------------------------|
----------------------------------------|


--------------------3-------------------|
--------------5-----------5-------------|
--------5L----5L----5-----------5-------|
----------------------------------------|
----------------------------------------|
--6-------------------------------------|


--------------------5L-5----------------|
--------------6L----6-----6-------------|
--------5L----5L----5L-5L-5-----5-------|
----------------------------------------|
----------------------------------------|
--5-------------------------------------|


--------------------4-------------------|
--------------6-----------6-------------|
--------5L----5-----------------5-------|
----------------------------------------|
----------------------------------------|
--4L----4-------------------------------|


--------------------3-------------------|
--------------5-----------5L-5----------|
--------5L----5L----5L----5-----5-------|
----------------------------------------|
----------------------------------------|
--3L----3-------------------------------|


--------------------3-------------------|
--------------5-----------5-------------|
--------5L----5L----5L----5L-5--5-------|
----------------------------------------|
----------------------------------------|
--3L----3-------------------------------|


--------------------1L-1----------------|
--------------1-----------1L-1--1-------|
--------2L----2L----2-----------2-------|
----------------------------------------|
----------------------------------------|
--1L----1L----1L----1L-1L-1-------------|


----------------------------------------|
--------0L----0L----0-----------0-------|
--0L----0L----0-----0--0L-0-------------|
--------------0-----------0L-0L-0-------|
----------------------------------------|
----------------------------------------|


--------------------3-------------------|
--------------5-----------5-------------|
--------5L----5L----5L----5-----5-------|
--5-------------------------------------|
----------------------------------------|
----------------------------------------|


--------------------3-------------------|
--------------5-----------5-------------|
--------5L----5L----5-----------5-------|
----------------------------------------|
--1L----1-------------------------------|
----------------------------------------|


--------------------5L-5----------------|
--------------6L----6-----6-------------|
--------5L----5L----5L-5L-5-----5-------|
----------------------------------------|
--0-------------------------------------|
----------------------------------------|


--------------------4-------------------|
--------------6-----------6-------------|
--------5L----5-----------------5-------|
----------------------------------------|
----------------------------------------|
--4-------------------------------------|


--------------------3-------------------|
--------------5-----------5L-5----------|
--------5L----5L----5L----5-----5-------|
----------------------------------------|
----------------------------------------|
--3-------------------------------------|


--------------------3-------------------|
--------------5-----------5-------------|
--------5L----5L----5L----5L-5--5-------|
----------------------------------------|
----------------------------------------|
--3-------------------------------------|


--------------------1L-1----------------|
--------------1-----------1L-1--1-------|
--------2L----2L----2-----------2-------|
--3L----3L----3L----3L-3L-3-------------|
----------------------------------------|
----------------------------------------|


----------------------------------------|
--------0L----0L----0-----------0-------|
--0L----0L----0-----0--0L-0-------------|
--------------0-----------0L-0L-0-------|
----------------------------------------|
----------------------------------------|


--------------------3-------------------|
--------------5-----------5-------------|
--------5L----5L----5L----5-----5--5L---|
--5--------------------------------5----|
----------------------------------------|
----------------------------------------|


--0-------------------------------------|-------------|-------------||
--1L-1----------------------------------|-------------|-------------||
--5L-5----------------------------------|-------------|-------------||
----------------------------------------|-------------|-------------||
----------------------------------------|-------------|-------------||
--3L-3----------------------------------|-------------|-------------||

ver v pdf pro 2 kytary:
https://www.dropbox.com/s/lsmcwh0y5hzfxlc/FrantisekNedved-TvouVuni.pdf

 
»
Tvoje obľúbené položky
Tvoje obľúbené položky
»
Nové albumy interpreta
Nové albumy interpreta
2xCD Nedved Frantisek Galerie pisni
2xCD Galerie pisni
CSL Nedvedi Honza A Frantisek Frantisek/slidepack
CSL Frantisek/slidep
ack
6xCD Varoius 100 nej country
6xCD 100 nej country
CD Brontosauri Hlidej lasku,.. /zlate hity
CD Hlidej lasku,..
/zlate hity
CD Nedved Frantisek Pata
CD Pata
CD Nedved Frantisek Ctvrta sada
CD Ctvrta sada

»
Najnovšie videá
Najnovšie videá

Lucie Bílá & František Nedvěd - Svítání

František Nedvěd 6/6 - Jablůňka - Já na

Helena Maršálková a František Nedvěd - R

To už dávno nejsem ja ...

Spívam ti míň - František Nedvěd

FRANTIšEK NEDVED (ROZCHOD)
»
Najnavštevovanejšie piesne
Najnavštevovanejšie piesne
Devatenáct - akordy a text

Podvod - akordy a text

Valčíček - text

Jablůňka - akordy a text

Cherokee Bill - akordy a text

Můj zvon - akordy a text

Jsem jenom chlap - akordy a text

Písnička je lék - akordy a text

Kočovní herci - taby

Svítání - akordy a text

viac




home | interpreti | register piesní | cd & dvd shop | pripomienky/nápady | kontakt | ochrana údajov | inzercia
Copyright © Pavol Bacigál, 2000-2017. Všetky práva vyhradené.
TOPlist