Jakub Smolík

piesne (103)

  texty (91) / preklady (0)
  akordy (29) / taby (6)
  noty (0) / slideshow (0)

články (11)
fotogaléria
diskusia
videá
diskografia
v obchode
odkazy
koncerty
sťahuj



pridaj vlastný článok

Jakub Smolík:
Jakub Smolík požiadal v Ríme priateľku o ruku - Český spevák Jakub Smolík požiadal svoju dlhoročnú priateľku a matku svojej päťročnej dcé...


Jakub Smolík:
Jakub Smolík se s albem Paleta života moc nevytáhl - denik.cz


Jakub Smolík:
Jakub Smolík: Píseň je o rakovině. Pro mě dost osobní - denik.cz


Black:
Novinkové album 2008 „GENIUS LOCI“ kapely ZLATÝ VOČI - Novinkové album 2008 „GENIUS LOCI“ kapely ZLATÝ VOČI v těchto dnech v prodeji! ZLATÝ...


Jakub Smolík:
Smolík: Chci ještě dvě děti! - dama.cz


Jakub Smolík:
Smolík: Sladké ano, sex ne! - blesk.cz


4tet:
V čele hitparády je po dvou týdnech opět Aneta Langerová - ihned.cz


Country:
Lešek Semelka: „Michalovi Tučnému jsem věřil!“ - countryworld.cz


Band A:
Stodola Michala Tučného 2004 již tuto sobotu - Stodola Michala Tučného 2004 již tuto sobotu Přidáno: 19. 08. 2004, v 16:40 Autor: Jiří ... - countryworld.cz


Pavel Dobeš:
Stodola Michala Tučného: Místo Vondráčkové přijede Vondráček - Stodola Michala Tučného: Místo Vondráčkové přijede Vondráček Přidáno: 08. 08. 2004, v 21... - countryworld.cz


 

Jakub Smolík

Fanúšikov: 3



A B C Č D E F G H CH I J K L Ľ M N O P Q R S Š T U V W X Y Z Ž



ako:
Jakub Smolík - Když andělé pláčou
Jakub Smolík - Když andělé pláčou

tlač

edituj
V originále: Tears in Heaven
Poznámka: Album: Vzpomínka na Blaník (2002)

Pesničku videlo 2531 návštevníkov.

Kvalita tabov : bez hodnotenia
Hodnotilo ľudí: 0 ohodnoť aj ty
Prispievateľ:

petr554
  *** Autor textu: Marcel Zmožek (cz) Will Jennings (en) *** Autor hudby: Eric Clapton
Když andělé pláčou

Tempo = 80bpm
Guitar
Takt: 4/4

A E/G# F#m
|--3--|
H Q E S S E E S S S E E E E E
E||------------------------|----------------------------------|
B||------------------------|--------2h-3p-2----5-------5--2---|
G||------------------------|-----2----------2--4-------4--2---|
D||------------------------|----------------------------------|
A||------------------------|--0-------------------------------|
E||-------------------0h-2-|-------------------4----4-----2---|


F#m/E D/F# E7sus4 E7
E E E E E E E E E E E E E E E E
-----------------------------|--------------------------------|
--L-----2-----2--------2-----|--3-------3-----3---------3-----|
--L-----2-----2--------2-----|--2-------2-----2---------1-----|
-----------------------------|--------------------------------|
-----------------------------|--------------------------------|
--L--2-----2--0-----0-----0--|--2----2-----2--0------0--0--0--|


A A E/G# F#m
|--3--|
E E E E E E E S S E E S S S E E E E E
----------------------------||-----------------------------------|
--2-----2-----2-----2-------||---------2h-3p-2----5-------5--2---|
--2-----2-----2-----2-------||*-----2----------2--4-------4--2---|
----------------------------||*----------------------------------|
--0--0-----0-----0----------||---0-------------------------------|
-----------------------0h-2-||--------------------4----4-----2---|


F#m/E D/F# A/E
>
E E E E E E E E E E E E E E E E
--------/5g7--5------------------|----------0------------0-----|
--L-----/5g7--5--/5g7s--5--2--5--|--3-------------2---3--------|
--L--------------/4g6s--4--2--4--|--2-------------2---------1--|
---------------------------------|-----------------------------|
---------------------------------|-----------------------------|
--L--2---------------------------|--2----2-----2--0------------|


E A E/G# F#m
|--3--|
E E E E E E E E E E S S S E Q E E
--------------------------------|-------------------------------|
--------0--------2--------3-----|--2-----2h-3p-2----5-------2---|
--L-----1--------2--------4-----|-----2----------2--4-------2---|
--------------------------------|-------------------------------|
-----------/2g4-----/4g5--------|--0----------------------------|
-----0-----------------------0--|-------------------4----4--2---|


F#m/E D/F# A
E E E E E E E E E E E E E E E E
--------2--4--5-----4--2--0--|----------------------0-----|
--L--------------------------|--3-------3-----2--3--------|
--L-----2--4--6-----4--2--1--|--2-------2-----2--------1--|
-----------------------------|--0-------------------------|
-----------------------------|----------------------------|
--L--2-----------------------|--2----2-----2--0-----------|


E F#m
E E E E E E E E E E E E E E E E
--------------------------------|---------2-----------2-----|
--------0--------2--------3-----|---------2-----------2-----|
--L-----1--------2--------4-----|------2-----2-----2-----2--|
--------------------------------|--4------------4-----------|
-----------/2g4-----/4g5--------|---------------------------|
-----0-----------------------0--|---------------------------|


C#/E# Em
E E E E E E E E E E E E E E E E
-----------1-----------1-----|--------0-----------0-----|
-----------2-----------2-----|--------0-----------0-----|
--------1-----1-----1-----1--|-----0-----0-----0-----0--|
--3--------------3-----------|--------------------------|
-----------------------------|--------------------------|
-----------------------------|--0-----------0-----------|


F#7 F#7sus4 Bm7 E7sus4
E E E E E E Q E E E E E E E E
-------------------------------|-------------------------------|
--------------------------2----|---------3-----------3---------|
--3------3-----4---------------|------2-----2-----2------------|
--2------2---------------------|-------------------------------|
-------------------------------|--2------------2---------------|
--2---2-----2----------2-------|------------------------0------|


A E/G# F#m
|--3--|
E E E E Q E S S E E S S S E E E E E
---------------------------|----------------------------------|
-----3--3-----3------------|--------2h-3p-2----5-------5--2---|
-----2--2-----2------------|-----2----------2--4-------4--2---|
---------------------------|----------------------------------|
---------------------------|--0-------------------------------|
--L--------0----------0h-2-|-------------------4----4-----2---|


F#m/E D/F# E7sus4 E7
>
E E E E E E E E E E E E Q Q
--------/5g7--5------------------|----------------------------|
--L-----/5g7--5--/5g7s--5--2--5--|--3-------3-----3------3----|
--L--------------/4g6s--4--2--4--|--2-------2-----2------1----|
---------------------------------|----------------------------|
---------------------------------|----------------------------|
--L--2---------------------------|--2----2-----2--0------0----|


A
E E E S S S S S S S S S S E E E E E E E S S
-------------------------------------||---------------------------|
--2-----2------------2h-3p-2---------||--2-----2-----2-----2------|
--2-----2-------2h-4---------4p-2---*||--2-----2-----2-----2------|
-----2-----2h-4-------------------4-*||---------------------------|
--0----------------------------------||-----0-----0-----0-----0-2-|
-------------------------------------||---------------------------|


C G/B Am D/F#
E E E E E E E E E E E E E E E E
--------0------------3-----|--------0-------------------|
--------1------------3-----|--------1-----3-------3-----|
-----0-----0------0-----0--|-----2-----2--2----2-----2--|
---------------------------|----------------------------|
--3-----------2------------|--0-------------------------|
---------------------------|--------------2-------------|


G D/F# Em D/F# G
E E E E E E E E E E E E E E E E
----------------------------|-----------------------------|
--------3-----3-------3-----|--------3-----3-------3p--0--|
-----0-----0--2-------2-----|--------4-----2-------0------|
----------------------------|-----------------------------|
----------------------------|-----------------------------|
--3-----------2----2-----2--|--0--0-----0--2----2--3------|


C G/B Am D/F#
E E E E E E E E E E E E E E Q
--------0------------3-----|--------0------------------|
--------1------------3-----|--------1-----3-------3----|
-----0-----0------0-----0--|-----2-----2--2-------2----|
---------------------------|---------------------------|
--3-----------2------------|--0------------------------|
---------------------------|--------------2----2-------|


G D/F# E
E E E E E E E E E E E E E E Q
----------------------------|----------------------------|
--------3-----3-------3-----|-----------------2-----3----|
-----0-----0--2----------2--|--------1--------2-----4----|
-------------------0--------|----------------------------|
----------------------------|-----2-----/2g4-----5-------|
--3-----------2-------------|--0-------------------------|


A E/G# F#m F#m/E
|---3--|
Q S S S E E E E E Q E E E E E E
-------9h-10p-9--------/12g14--12--9---|--L-------------------------|
----------------10---------------------|-------2-----2--------2-----|
---------------------------------------|-------2-----2--------2-----|
---------------------------------------|----------------------------|
--0------------------------------------|----------------------------|
---------------------------------------|----------2--------0-----0--|


D/F# A/E E
> >
E E E E E E E E E E H.
-----------------10--9s--7--5--/7g9--|-----7--7------------|
--3----------------------------------|---------------------|
--2-------/9g11------9s--7--6--/7g9--|-----7--7------------|
-------------------------------------|---------------------|
-------------------------------------|---------------------|
-------2-----------------------------|---------------------|


A E/G# F#m F#m/E
|---3--|
Q S S S E E E E E Q E E E E E E
-------9h-10p-9-----/12g14--12-----9---|--L-------------------------|
----------------10---------------------|-------2-----2--------2-----|
---------------------------------------|-------2-----2--------2-----|
---------------------------------------|----------------------------|
---------------------------------------|----------------------------|
---------------------------------------|----------2--------0-----0--|


D/F# A/E E
> >
E E E E E E E S S E E H.
-----------------10--9s--7--5--7s-9-|--L--7--7------------|
--3---------------------------------|---------------------|
--2-------/9g11------9s--7--6--7s-9-|--L--7--7------------|
------------------------------------|---------------------|
------------------------------------|---------------------|
-------2----------------------------|---------------------|


A A E/G# F#m
E E E S S S S S S S S S S E E E E E E E E
------------------------------------|-----------------------------|
--2-----2------------2h-3p-2--------|--------2--------4-------2---|
--2-----2-------2h-4---------4p-2---|--------2--------5-------2---|
-----2-----2h-4-------------------4-|--2--------------------------|
--0---------------------------------|-----0-----0-----------------|
------------------------------------|-----------------4-------2---|


F#m/E D/F# A/E
>
Q E E E E E E E E E E E E E E
-------2--4--5-----4--2--0--|-----------------------0-----|
--L-------------------------|--3-------3-----2---3--------|
--L----2--4--6-----4--2--1--|--2-------2-----2---------1--|
----------------------------|--0--------------------------|
----------------------------|-----------------------------|
--L-------------------------|--2----2-----2--0------------|


E A E/G# F#m
|--3--|
E E E E E E E E E E S S S E E E E E
--------------------------------|----------------------------------|
--------0--------2--------3-----|--------2h-3p-2----5-------5--2---|
--L-----1--------2--------4-----|-----2----------2--4-------4--2---|
--------------------------------|----------------------------------|
-----------/2g4-----/4g5--------|--0-------------------------------|
-----0-----------------------0--|-------------------4----4-----2---|


F#m/E D/F# A/E
>
E E E E E E E E E E E E E E E E
--------/5g7--5------------------|----------0------------0-----|
--L-----/5g7--5--/5g7s--5--2--5--|--3-------------2---3--------|
--L--------------/4g6s--4--2--4--|--2-------------2---------1--|
---------------------------------|-----------------------------|
---------------------------------|-----------------------------|
--L--2---------------------------|--2----2-----2--0------------|


E F#m
E E E E E E E E E E E E E E E E
--------------------------------|---------2-----------2-----|
--------0--------2--------3-----|---------2-----------2-----|
--L-----1--------2--------4-----|------2-----2-----2-----2--|
--------------------------------|--4------------4-----------|
-----------/2g4-----/4g5--------|---------------------------|
-----0-----------------------0--|---------------------------|


C#/E# Em
E E E E E E E E E E E E E E E E
-----------1-----------1-----|--------0-----------0-----|
-----------2-----------2-----|--------0-----------0-----|
--------1-----1-----1-----1--|-----0-----0-----0-----0--|
--3--------------3-----------|--------------------------|
-----------------------------|--------------------------|
-----------------------------|--0-----------0-----------|


F#7 F#7sus4 Bm7 E7sus4
E E E E E E Q E E E E E E E E
-------------------------------|-------------------------------|
--------------------------2----|---------3-----------3---------|
--3------3-----4---------------|------2-----2-----2------------|
--2------2---------------------|-------------------------------|
-------------------------------|--2------------2---------------|
--2---2-----2----------2-------|------------------------0------|


A E/G# F#m
|--3--|
E E E E Q E S S E E S S S E E E E E
---------------------------|----------------------------------|
-----3--3-----3------------|--------2h-3p-2----5-------5--2---|
-----2--2-----2------------|-----2----------2--4-------4--2---|
---------------------------|----------------------------------|
---------------------------|--0-------------------------------|
--L--------0----------0h-2-|-------------------4----4-----2---|


F#m/E Bm7
E E E E E E E E E E E E Q E E
-----------------------------|--------------------------|
--L-----2-----2--------2-----|--3------3----------3-----|
--L-----2-----2--------2-----|--2------2--2-------2-----|
-----------------------------|--------------------------|
-----------------------------|--2---2--------2----------|
--L--2-----2--0-----0-----0--|-----------------------0--|


E7sus4 A E/G# F#m
> >
|--3--|
E E E E Q E S S E E S S S E E E E E
-------------------------------|----------------------------------|
---------3--3-----3------------|--------2h-3p-2----5-------5--2---|
---------2--2-----2------------|-----2----------2--4-------4--2---|
-------------------------------|----------------------------------|
-------------------------------|--0-------------------------------|
--0------------0----------0h-2-|-------------------4----4-----2---|


F#m/E D/F# E7sus4 E7
>
E E E E E E E E E E E E Q Q
--------/5g7--5------------------|----------------------------|
--L-----/5g7--5--/5g7s--5--2--5--|--3-------3-----3------3----|
--L--------------/4g6s--4--2--4--|--2-------2-----2------1----|
---------------------------------|----------------------------|
---------------------------------|----------------------------|
--L--2---------------------------|--2----2-----2--0------0----|


|--3--|
S S S S S T T T S S S S Q.
--------------------------------------||
--------2-3-2h-3p-2----------5-5------||
------2-------------4-2-/4g6----------||
----2---------------------------------||
--0-----------------------------------||
--------------------------------------||

v pdf:
https://www.dropbox.com/s/hp7zqcqyy1kheyu/
Smol%C3%ADk%2CJakub%20-%20Tears%20In%20Heaven.pdf


Duration Legend
---------------
W - whole
H - half
Q - quarter
E - 8th
S - 16th
T - 32nd
X - 64th
. - note dotted
|-n-| - n-tuplets


Tablature Legend
----------------
L - tied note
x - dead note
g - grace note
(n) - ghost note
> - accentuded note
NH - natural harmonic
AH - artificial harmonic
TH - tapped harmonic
SH - semi harmonic
PH - pitch harmonic
h - hammer on
p - pull off
b - bend
br - bendRelease
pb - preBend
pbr - preBendRelease
brb - bendReleaseBend
\n/ - tremolo bar dip
\n - tremolo bar dive
-/n - tremolo bar Release up
/n\ - tremolo bar inverted dip
/n - tremolo bar return
-\n - tremolo bar Release down
S - shift slide
s - legato slide
/ - slide into from below or out of upwards
\ - slide into from above or out of downwards
~ - vibrato
W - wide vibrato
tr - trill
TP - tremolo picking
T - tapping
S - slap
P - pop
< - fade in
^ - brush up
v - brush down

 
»
Tvoje obľúbené položky
Tvoje obľúbené položky
»
Nové albumy interpreta
Nové albumy interpreta
CD Smolik Jakub Stastne a vesele vanoce
CD Stastne a vesele
vanoce
3xCD Smolik Jakub 55 hitu - best of /3cd
3xCD 55 hitu - best
of /3cd
KNI Jakub Smolík Jakub smolík - vítám každý nový den cd
KNI Jakub smolík -
vítám každý nový
den cd
CD Smolik Jakub At se zastavi cas
CD At se zastavi
cas
CD Smolik Jakub Chci ti rict...
CD Chci ti rict...
CD Smolik Jakub Rekni, ze je nebe
CD Rekni, ze je
nebe

»
Najnovšie videá
Najnovšie videá


Když andělé pláčou

Když andělé pláčou - Jakub Smolí­k

Jakub Smolík - Když andělé pláčou

Jakub Smolik, kdyz andele placou

Jakub Smoli
»
Najnavštevovanejšie piesne
Najnavštevovanejšie piesne
Haleluja - akordy a text

Říkej mi táto - akordy a text

Haleluja - akordy a text

Jen blázen žárlí - akordy a text

Až se ti jednou bude zdát - akordy a text

ŘÍKEJ MI TÁTO - text

Holka s bílou halenou - akordy

Andělé pláčou - akordy a text

Víš - akordy a text

Haleluja - taby

viac




home | interpreti | register piesní | cd & dvd shop | pripomienky/nápady | kontakt | ochrana údajov | inzercia
Copyright © Pavol Bacigál, 2000-2017. Všetky práva vyhradené.
TOPlist