Jakub Smolík

piesne (103)

  texty (91) / preklady (0)
  akordy (29) / taby (6)
  noty (0) / slideshow (0)

články (11)
fotogaléria
diskusia
videá
diskografia
v obchode
odkazy
koncerty
sťahuj



pridaj vlastný článok

Jakub Smolík:
Jakub Smolík požiadal v Ríme priateľku o ruku - Český spevák Jakub Smolík požiadal svoju dlhoročnú priateľku a matku svojej päť...


Jakub Smolík:
Jakub Smolík se s albem Paleta života moc nevytáhl - denik.cz


Jakub Smolík:
Jakub Smolík: Píseň je o rakovině. Pro mě dost osobní - denik.cz


Black:
Novinkové album 2008 „GENIUS LOCI“ kapely ZLATÝ VOČI - Novinkové album 2008 „GENIUS LOCI“ kapely ZLATÝ VOČI v těchto dnech v prodeji! ...


Jakub Smolík:
Smolík: Chci ještě dvě děti! - dama.cz


Jakub Smolík:
Smolík: Sladké ano, sex ne! - blesk.cz


4tet:
V čele hitparády je po dvou týdnech opět Aneta Langerová - ihned.cz


Country:
Lešek Semelka: „Michalovi Tučnému jsem věřil!“ - countryworld.cz


Band A:
Stodola Michala Tučného 2004 již tuto sobotu - Stodola Michala Tučného 2004 již tuto sobotu Přidáno: 19. 08. 2004, v 16:40 Autor: ... - countryworld.cz


Pavel Dobeš:
Stodola Michala Tučného: Místo Vondráčkové přijede Vondráček - Stodola Michala Tučného: Místo Vondráčkové přijede Vondráček Přidáno: 08. 08.... - countryworld.cz


 

Jakub Smolík

Fanúšikov: 3



A B C Č D E F G H CH I J K L Ľ M N O P Q R S Š T U V W X Y Z Ž



ako:
Jakub Smolík - Já Tě dívko dávno znám
Jakub Smolík - Já Tě dívko dávno znám

tlač

edituj
Rok vzniku: 2007
V originále: If Tomorrow Never Comes
Pesničku videlo 2095 návštevníkov.

Kvalita tabov : bez hodnotenia
Hodnotilo ľudí: 0 ohodnoť aj ty
Prispievateľ:

petr554
  *** Autor textu: Roman Šandor, Zbyněk Derner *** Autor hudby: Kent Blazy, Garth Brooks
Title: Já Tě dívko dávno znám
SubTitle: If tomorrow never comes
Artist: Smolík Jakub

Takt 4/4
Tempo = 78
Guitar 1(doprovod)

Legend
L - tied note
x - dead note
h - hammer on/pull off
b - bend
s - slide
~ - vibrato
g - ghost note
> - accentuated note
t - trill
M - palm mute
. - staccato
P - popping (bass)
S - slapping (bass)
+ - tapping
W - wide vibrato
< - fade in
w - whammy bar
= - tremolo picking
v - brush up
^ - brush down
V - pick stroke up
n - pick stroke down

^
E |----------------------------------------------------|-------|
B |--0-----------------0-----1s-3--------3s-1----------|--0----|
G |--------------0-----------------0-----------0-------|--0----|
D |--------0-----------------2s-4--------4s-2----------|--0----|
A |----------------------------------------------------|--2----|
E |--3-------------------------------------------------|--3----|


--------------0-------------|
-----------1-----1----------|
--------2-----------2--0----|
-----2----------------------|
--0-------------------------|
----------------------------|


--------------------------3h-2--------0h-2----------|
--------------3-----------------3-----------3-------|
--------2-----------2-------------------------------|
--0-------------------------------------------------|
----------------------------------------------------|
----------------------------------------------------|


--------3-------------------|--------3-------------------|
--1--------1--0--------0----|-----------1--0-----0-------|
--------------------0-------|--2--------------------0----|
-----2-----------0----------|-----0-----------0----------|
----------------------------|----------------------------|
--3-----------3-------------|--3-----------3-------------|


----------------------------|----------------------------|
--------1--------------1----|--------3-----1--------1----|
-----2-----2--------2-------|-----2-----2--------0-------|
--0--------------2----------|--0--------------2----------|
--------------0-------------|----------------------------|
----------------------------|--------------3-------------|

^
----------------------------------------------------|--3----|
--0-----------------0-----0h-1--------1-------------|--0----|
--------------0-----------------0-----------0-------|--0----|
--------0-------------------------------------------|--0----|
----------------------------------------------------|--2----|
--3-----------------------3-------------------------|--3----|


--------------0--------3----|
-----------1-----1----------|
--------2-------------------|
-----2--------------2-------|
--0-------------------------|
----------------------------|


--2L----2L----2L----2-----3h-2--------0h-2----------|
--------------3-----------------3-----------3-------|
--------2-----------2-------------------------------|
--0-------------------------------------------------|
----------------------------------------------------|
----------------------------------------------------|


--------3-------------------|--------3-------------------|
--1--------1--0--------0----|-----------1--0-----0-------|
--------------------0-------|--2--------------------0----|
-----2-----------0----------|-----0-----------0----------|
----------------------------|----------------------------|
--3-----------3-------------|--3-----------3-------------|


----------------------------|----------------------------|
--------1--------------1----|--------3-----1--------1----|
-----2-----2--------2-------|-----2-----2--------0-------|
--0--------------2----------|--0--------------2----------|
--------------0-------------|----------------------------|
----------------------------|--------------3-------------|

^
----------------------------------------------------|--3----|
--0-----------------0-----1s-3--------3s-1----------|--0----|
--------------0-----------------0-----------0-------|--0----|
--------0-----------------2s-4--------4s-2----------|--0----|
----------------------------------------------------|--2----|
--3-------------------------------------------------|--3----|


--------------0-------------|--------------0-------------|
-----------1-----1----------|-----------1-----1----------|
--------0-----------0-------|--------0-----------0-------|
-----2-----------------2----|-----2-----------------2----|
--3-------------------------|--3-------------------------|
----------------------------|----------------------------|


--------------3-------------|
-----------0-----0----------|
--------0-----------0-------|
-----0-----------------0----|
----------------------------|
--3-------------------------|


--------------------------3-------------------------|
--------------------0-----------0-------------------|
--------------0-----------------------0-------------|
--------0-----------------------------------0-------|
--0h-2----------------------------------------------|
----------------------------------------------------|


----------------------------|----------------------------|
--------3--------------1----|--------3-----1--------1----|
-----2-----2--------0-------|-----2-----2--------0-------|
--0--------------2----------|--0--------------2----------|
--------------0-------------|----------------------------|
----------------------------|--------------3-------------|


--------------------3-------|
--0--------0--1--------1----|
--------0-------------------|
-----0-----------2----------|
----------------------------|
--3-----------3-------------|


----------------------------------------------------|
--0-----------------0-------------------------------|
--------------0--------------------0-----------0----|
--------0-----------------------2-----------0-------|
--------------------------0-----------2-------------|
--3-------------------------------------------------|


--------------0-------------|
-----------1-----1----------|
--------0-----------0-------|
-----2-----------------2----|
--3-------------------------|
----------------------------|


----------------------------------------------------|
--------------------1--------------1-----------3----|
--------------0-----------------0-----------2-------|
--------2-----------------------------0-------------|
--3-----------------------3-------------------------|
----------------------------------------------------|

^
--------------0-------------|--0----|----------------------------|
-----------0-----0----------|--0----|-----------1-----------1----|
--------0-----------0-------|--0----|--------0-----------0-------|
-----2-----------------2----|--2----|-----2-----------2----------|
----------------------------|--2----|--0-----------3-------------|
--0-------------------------|--0----|----------------------------|


----------------------------|
--------3--------------1----|
-----2-----2--------0-------|
--0--------------2----------|
----------------------------|
--------------3-------------|


----------------------------------------------------|
--0-----------------0-----1s-3--------3s-1----------|
--------------0-----------------0-----------0-------|
--------0-----------------2s-4--------4s-2----------|
----------------------------------------------------|
--3-------------------------------------------------|


----------------------------|--------------0-------------|
--0--------0-----------0----|-----------1-----1----------|
--------0-----------0-------|--------2-----------2--0----|
-----0-----------0----------|-----2----------------------|
----------------------------|--0-------------------------|
--3-----------3-------------|----------------------------|


--------------------------3h-2--------0h-2----------|
--------------3-----------------3-----------3-------|
--------2-----------2-------------------------------|
--0-------------------------------------------------|
----------------------------------------------------|
----------------------------------------------------|


--------3-------------------|--------3-------------------|
--1--------1--0--------0----|-----------1--0-----0-------|
--------------------0-------|--2--------------------0----|
-----2-----------0----------|-----0-----------0----------|
----------------------------|----------------------------|
--3-----------3-------------|--3-----------3-------------|


----------------------------|----------------------------|
--------1--------------1----|--------3-----1--------1----|
-----2-----2--------2-------|-----2-----2--------0-------|
--0--------------2----------|--0--------------2----------|
--------------0-------------|--------------3-------------|
----------------------------|----------------------------|


----------------------------------------------------|
--0-----------------0-----0h-1--------1-------------|
--------------0-----------------0-----------0-------|
--------0-------------------------------------------|
----------------------------------------------------|
--3-----------------------3-------------------------|


----------------------------|--------------0--------3----|
--0--------0-----------0----|-----------1-----1----------|
--------0-----------0-------|--------2-------------------|
-----0-----------0----------|-----2--------------2-------|
----------------------------|--0-------------------------|
--3-----------3-------------|----------------------------|


--2L----2L----2L----2-----3h-2--------0h-2----------|
--------------3-----------------3-----------3-------|
--------2-----------2-------------------------------|
--0-------------------------------------------------|
----------------------------------------------------|
----------------------------------------------------|


--------3-------------------|--------3-------------------|
--1--------1--0--------0----|-----------1--0-----0-------|
--------------------0-------|--2--------------------0----|
-----2-----------0----------|-----0-----------0----------|
----------------------------|----------------------------|
--3-----------3-------------|--3-----------3-------------|


----------------------------|----------------------------|
--------1--------------1----|--------3-----1--------1----|
-----2-----2--------2-------|-----2-----2--------0-------|
--0--------------2----------|--0--------------2----------|
--------------0-------------|--------------3-------------|
----------------------------|----------------------------|

^
----------------------------------------------------|--3----|
--0-----------------0-----1s-3--------3s-1----------|--0----|
--------------0-----------------0-----------0-------|--0----|
--------0-----------------2s-4--------4s-2----------|--0----|
----------------------------------------------------|--2----|
--3-------------------------------------------------|--3----|


--------------0-------------|--------------0-------------|
-----------1-----1----------|-----------1-----1----------|
--------0-----------0-------|--------0-----------0-------|
-----2-----------------2----|-----2-----------------2----|
--3-------------------------|--3-------------------------|
----------------------------|----------------------------|


--------------3-------------|
-----------0-----0----------|
--------0-----------0-------|
-----0-----------------0----|
----------------------------|
--3-------------------------|


--------------------------3-------------------------|
--------------------0-----------0-------------------|
--------------0-----------------------0-------------|
--------0-----------------------------------0-------|
--0h-2----------------------------------------------|
----------------------------------------------------|


----------------------------|----------------------------|
--------3--------------1----|--------3-----1--------1----|
-----2-----2--------0-------|-----2-----2--------0-------|
--0--------------2----------|--0--------------2----------|
--------------0-------------|----------------------------|
----------------------------|--------------3-------------|


--------------------3-------|
--0--------0--1--------1----|
--------0-------------------|
-----0-----------2----------|
----------------------------|
--3-----------3-------------|


----------------------------------------------------|
--0-----------------0-------------------------------|
--------------0--------------------0-----------0----|
--------0-----------------------2-----------0-------|
--------------------------0-----------2-------------|
--3-------------------------------------------------|


--------------0-------------|
-----------1-----1----------|
--------0-----------0-------|
-----2-----------------2----|
--3-------------------------|
----------------------------|


----------------------------------------------------|
--------------------1--------------1-----------3----|
--------------0-----------------0-----------2-------|
--------2-----------------------------0-------------|
--3-----------------------3-------------------------|
----------------------------------------------------|

^
--------------0-------------|--0----|----------------------------|
-----------0-----0----------|--0----|-----------1-----------1----|
--------0-----------0-------|--0----|--------0-----------0-------|
-----2-----------------2----|--2----|-----2-----------2----------|
----------------------------|--2----|--0-----------3-------------|
--0-------------------------|--0----|----------------------------|


----------------------------|
--------3--------------1----|
-----2-----2--------0-------|
--0--------------2----------|
----------------------------|
--------------3-------------|

^
----------------------------------------------------|--3----|
--0-----------------0-----1s-3--------3s-1----------|--3----|
--------------0-----------------0-----------0-------|--0----|
--------0-----------------2s-4--------4s-2----------|--0----|
----------------------------------------------------|--2----|
--3-------------------------------------------------|--3----|


--------------0-------------|--------------2-------------|
-----------1-----1----------|--------3--------3-----3----|
--------0-----------0-------|-----2-----2--------2-------|
-----2-----------------2----|--0-------------------------|
--0-------------------------|----------------------------|
----------------------------|----------------------------|

^
--------------------------------------------------|--3L---|--3L---|--3L---|
1-----------------1--------------1-----------1----|--3L---|--3L---|--3L---|
------------0-----------------0-----------0-------|--0L---|--0L---|--0L---|
------2-------------------------------------------|--0L---|--0L---|--0L---|
3-----------------------2-----------0-------------|--2L---|--2L---|--2L---|
--------------------------------------------------|--3L---|--3L---|--3L---|


--3L---|--3----||
--3L---|--3----||
--0L---|--0----||
--0L---|--0----||
--2L---|--2----||
--3L---|--3----||



V pdf pro 2 kytary:

https://www.dropbox.com/s/5bg9oe6q1a2nt7a/
Smol%C3%ADk%20-%20If%20Tomorrow%20Never%20Comes.pdf

 
»
Tvoje obľúbené položky
Tvoje obľúbené položky
»
Nové albumy interpreta
Nové albumy interpreta
6
CD Smolik Jakub Stastne a vesele vanoce
CD Stastne a vesele
vanoce
KNI Jakub Smolík Jakub smolík - vítám každý nový den cd
KNI Jakub smolík -
vítám každþ
novþ den cd
3xCD Smolik Jakub 55 hitu - best of
3xCD 55 hitu - best
of
CD Smolik Jakub Neuveritelne prihody jakuba smolika
CD Neuveritelne
prihody jakuba
smolika
CD Smolik Jakub Dopisy lasky - vzpominka na blanik
CD Dopisy lasky -
vzpominka na
blanik
CD Smolik Jakub Paleta zivota
CD Paleta zivota

»
Najnovšie videá
Najnovšie videá

Jakub Smolik"Ja Te divko davno znam"

Jakub Smolk-J T dvko dvno znm.wmv

Jakub Smolk (Live) "J t dvko dvno z

jakub smolik ja te lasko davno znam

Jakub Smolk - Dvka s blou halenou

J za Tebou dl budu stt "Jakub Smolk"
»
Najnavštevovanejšie piesne
Najnavštevovanejšie piesne
Haleluja - akordy a text

Říkej mi táto - akordy a text

Haleluja - akordy a text

Jen blázen žárlí - akordy a text

Až se ti jednou bude zdát - akordy a text

ŘÍKEJ MI TÁTO - text

Andělé pláčou - akordy a text

Víš - akordy a text

Haleluja - taby

Popelky - akordy a text

Až mě andělé - akordy a text

Ave Maria - akordy a text

Stýskání - akordy a text

Návrát - akordy a text

Ó mámo - akordy a text

Nejsi má - akordy a text

Haleluja - text

Holka s bílou halenou - akordy

Prý chlapi nebrečí - akordy a text

Prý chlapi nebrečí - akordy a text

viac




home | interpreti | register piesní | cd & dvd shop | pripomienky/nápady | kontakt | ochrana údajov | inzercia

TOPlist