Michal Tučný

piesne (229)

  texty (218) / preklady (0)
  akordy (114) / taby (4)
  noty (1) / slideshow (0)

články (34)
fotogaléria
diskusia
videá
diskografia
v obchode
odkazy
koncerty
sťahuj



pridaj vlastný článok

Michal Tučný:
Michal Tučný by oslavil sedmdesáté narozeniny - Legenda - Zlatá kolekce Na třech CD ve výpravné edici Zlatá kolekce najdete šedesát + ... - P.Malínsky


Band A:
COUNTRYFEST BOHUNICE 2016 sa predstavuje - Willie Jones (Foto: Countryfest Bohunice) Willie Jones (Foto: Countryfest Bohunice... - countryworld.cz


Pavel Bobek:
Nautilus Zdeňka Rytíře (online album) - Hodnotenie: 10 / 10 Pošli na Facebook Pošli na Twitter Pošli na Googl... - server.sk


Michal Tučný:
Stodola Michala Tučného startuje již dnes! - Vladimír Boryš Secký a Ondřej Hejma na SMT 2011 (Foto: Jiří Konc / CountryWorld.cz... - countryworld.cz


Michal Tučný:
Pepa Vojtek: „Písně Michala Tučného nestárnou“ - Přidáno: 20. 08. 2012, v 00:37 Autor: Jiří Konc Jubilejní patnáctý ročník festivalu S... - countryworld.cz


Michal Tučný:
VIDEO: Michal Tučný - Báječná ženská - muzikus.cz


Michal Tučný:
Stodola Michala Tučného nabídne country i pop - ceskenoviny.cz


Michal Tučný:
Stodola Michala Tučného se rozjede ve víru festivalové zábavy - novinky.cz


Michal Tučný:
Letošní Stodola Michala Tučného nabídne hvězdy country i popu - countryworld.cz


Michal Tučný:
Dvacítka nejoblíbenějších písniček Michala Tučného podle čtenářů CountryWorldu - countryworld.cz


 

Michal Tučný

Fanúšikov: 16



A B C Č D E F G H CH I J K L Ľ M N O P Q R S Š T U V W X Y Z Ž



ako:
Michal Tučný - Báječná ženská
Michal Tučný - Báječná ženská

tlač

edituj
V originále: Good Hearted Woman
Pesničku videlo 7795 návštevníkov.

Kvalita tabov : bez hodnotenia
Hodnotilo ľudí: 0 ohodnoť aj ty
Prispievateľ:

petr554
  *** Autor textu: Tučný Michal *** Autor hudby: Waylon Jennings
Báječná ženská
(Good Hearted Woman)

Tučný Michal

Tempo = 102
Steel gtr (doprovod)

Legend
L - tied note
x - dead note
h - hammer on/pull off
b - bend
s - slide
~ - vibrato
g - ghost note
> - accentuated note
t - trill
M - palm mute
. - staccato
P - popping (bass)
S - slapping (bass)
+ - tapping
W - wide vibrato
< - fade in
w - whammy bar
= - tremolo picking
v - brush up
^ - brush down
V - pick stroke up
n - pick stroke down


E |-------|-------|--------2-----------2--2--------2-----------2--2----|
B |-------|-------|--------3-----------3--3--------3-----------3--3----|
G |-------|-------|--------2-----------2--2--------2-----------2--2----|
D |-------|-------|--0-----------------------0-------------------------|
A |-------|-------|--------------0-----------------------0-------------|
E |-------|-------|----------------------------------------------------|


--------2-----------2--2--------2-----------2--2----|
--------3-----------3--3--------3-----------3--3----|
--------2-----------2--2--------2-----------2--2----|
--0-----------------------0-------------------------|
--------------0-----------------------0-------------|
----------------------------------------------------|


--------2-----------2--2--------2-----------2--2----|
--------3-----------3--3--------3-----------3--3----|
--------2-----------2--2--------2-----------2--2----|
--0-----------------------0-------------------------|
--------------0-----------------------0-------------|
----------------------------------------------------|


--------2-----------2--2--------2-----------2--2----|
--------3-----------3--3--------3-----------3--3----|
--------2-----------2--2--------2-----------2--2----|
--0-----------------------0-------------------------|
--------------0-----------------------0-------------|
----------------------------------------------------|


--------2-----------2--2--------2-----------2--2----|
--------3-----------3--3--------3-----------3--3----|
--------2-----------2--2--------2-----------2--2----|
--0-----------------------0-------------------------|
--------------0-----------------------0-------------|
----------------------------------------------------|


--------3--3--------3-----------3--3--------3-------|
--------3--3--------3-----------3--3--------3-------|
--------0--0--------0-----------0--0--------0-------|
----------------------------------------------------|
----------------------------------------------------|
--3-----------------------3L----3-------------------|


--------3--3--------3-----------3--3--------3-------|
--------3--3--------3-----------3--3--------3-------|
--------0--0--------0-----------0--0--------0-------|
----------------------------------------------------|
----------------------------------------------------|
--3-----------------------3-------------------------|


--------0--0--------0-----------0--0--------0-------|
--------2--2--------2-----------2--2--------2-------|
--------2--2--------2-----------2--2--------2-------|
----------------------------------------------------|
--0L----0-----------------0-------------------------|
--------------0-----------------------0-------------|


--------0--0--------0-----------0--0--------0-------|
--------2--2--------2-----------2--2--------2-------|
--------2--2--------2-----------2--2--------2-------|
----------------------------------------------------|
--0L----0-----------------0-------------------------|
--------------0-----------------------0-------------|


--------2-----------2--2--------2-----------2--2----|
--------3-----------3--3--------3-----------3--3----|
--------2-----------2--2--------2-----------2--2----|
--0-----------------------0-------------------------|
--------------0-----------------------0-------------|
----------------------------------------------------|


--------2-----------2--2--------2-----------2--2----|
--------3-----------3--3--------3-----------3--3----|
--------2-----------2--2--------2-----------2--2----|
--0-----------------------0-------------------------|
--------------0-----------------------0-------------|
----------------------------------------------------|


--------2-----------2--2--------2-----------2--2----|
--------3-----------3--3--------3-----------3--3----|
--------2-----------2--2--------2-----------2--2----|
--0-----------------------0-------------------------|
--------------0-----------------------0-------------|
----------------------------------------------------|


--------2-----------2--2--------2-----------2--2----|
--------3-----------3--3--------3-----------3--3----|
--------2-----------2--2--------2-----------2--2----|
--0-----------------------0-------------------------|
--------------0-----------------------0-------------|
----------------------------------------------------|


--------3--3--------3-----------3--3--------3-------|
--------3--3--------3-----------3--3--------3-------|
--------0--0--------0-----------0--0--------0-------|
----------------------------------------------------|
----------------------------------------------------|
--3-----------------------3L----3-------------------|


--------3--3--------3-----------3--3--------3-------|
--------3--3--------3-----------3--3--------3-------|
--------0--0--------0-----------0--0--------0-------|
----------------------------------------------------|
----------------------------------------------------|
--3-----------------------3-------------------------|


--------0--0--------0-----------0--0--------0-------|
--------2--2--------2-----------2--2--------2-------|
--------2--2--------2-----------2--2--------2-------|
----------------------------------------------------|
--0L----0-----------------0-------------------------|
--------------0-----------------------0-------------|


--------0--0--------0-----------0--0--------0-------|
--------2--2--------2-----------2--2--------2-------|
--------2--2--------2-----------2--2--------2-------|
----------------------------------------------------|
--0L----0-----------------0-------------------------|
--------------0-----------------------0-------------|


--------2--2--------2-----------2--2--------2-------|
--------3--3--------3-----------3--3--------3-------|
--------2--2--------2-----------2--2--------2-------|
--0L----0-----------------0-------------------------|
--------------0-----------------------0-------------|
----------------------------------------------------|


--------2--2L-2-----2-----------2--2--------2-------|
--------3--3L-3-----3-----------3--3--------3-------|
--------2--2L-2-----2-----------2--2--------2-------|
--0-----------------------0L----0-------------------|
--------------0L-0--------------------0-------------|
----------------------------------------------------|


--------2-----------2--2--------2-----------2--2----|
--------3-----------3--3--------3-----------3--3----|
--------2-----------2--2--------2-----------2--2----|
--0-----------------------0-------------------------|
--------------0-----------------------0-------------|
----------------------------------------------------|


--------2-----------2--2--------2-----------2--2----|
--------3-----------3--3--------3-----------3--3----|
--------2-----------2--2--------2-----------2--2----|
--0-----------------------0-------------------------|
--------------0-----------------------0-------------|
----------------------------------------------------|


--------3--3--------3-----------3--3--------3-------|
--------3--3--------3-----------3--3--------3-------|
--------0--0--------0-----------0--0--------0-------|
----------------------------------------------------|
----------------------------------------------------|
--3-----------------------3L----3-------------------|


--------3--3--------3-----------3--3--------3-------|
--------3--3--------3-----------3--3--------3-------|
--------0--0--------0-----------0--0--------0-------|
----------------------------------------------------|
----------------------------------------------------|
--3-----------------------3-------------------------|


--------0--0--------0-----------0--0--------0-------|
--------2--2--------2-----------2--2--------2-------|
--------2--2--------2-----------2--2--------2-------|
----------------------------------------------------|
--0L----0-----------------0-------------------------|
--------------0-----------------------0-------------|


--------0--0--------0-----------0--0--------0-------|
--------2--2--------2-----------2--2--------2-------|
--------2--2--------2-----------2--2--------2-------|
----------------------------------------------------|
--0L----0-----------------0-------------------------|
--------------0-----------------------0-------------|


--------2--2--------2-----------2--2--------2-------|
--------3--3--------3-----------3--3--------3-------|
--------2--2--------2-----------2--2--------2-------|
--0L----0-----------------0-------------------------|
--------------0-----------------------0-------------|
----------------------------------------------------|


--------2--2L-2-----2-----------2--2--------2-------|
--------3--3L-3-----3-----------3--3--------3-------|
--------2--2L-2-----2-----------2--2--------2-------|
--0-----------------------0L----0-------------------|
--------------0L-0--------------------0-------------|
----------------------------------------------------|


--------2-----------2--2--------2-----------2--2----|
--------3-----------3--3--------3-----------3--3----|
--------2-----------2--2--------2-----------2--2----|
--0-----------------------0-------------------------|
--------------0-----------------------0-------------|
----------------------------------------------------|


--------2-----------2--2--------2-----------2--2----|
--------3-----------3--3--------3-----------3--3----|
--------2-----------2--2--------2-----------2--2----|
--0-----------------------0-------------------------|
--------------0-----------------------0-------------|
----------------------------------------------------|


--------3--3--------3-----------3--3--------3-------|
--------0--0--------0-----------0--0--------0-------|
--------0--0--------0-----------0--0--------0-------|
----------------------------------------------------|
----------------------------------------------------|
--3-----------------------3L----3-------------------|


--------3--3--------3-----------3--3--------3-------|
--------0--0--------0-----------0--0--------0-------|
--------0--0--------0-----------0--0--------0-------|
----------------------------------------------------|
----------------------------------------------------|
--3-----------------------3-------------------------|


--------0--0--------0-----------0--0--------0-------|
--------2--2--------2-----------2--2--------2-------|
--------2--2--------2-----------2--2--------2-------|
----------------------------------------------------|
--0L----0-----------------0-------------------------|
--------------0-----------------------0-------------|


--------0--0--------0-----------0--0--------0-------|
--------2--2--------2-----------2--2--------2-------|
--------2--2--------2-----------2--2--------2-------|
----------------------------------------------------|
--0L----0-----------------0-------------------------|
--------------0-----------------------0-------------|


--------2--2--------2-----------2--2--------2-------|
--------3--3--------3-----------3--3--------3-------|
--------2--2--------2-----------2--2--------2-------|
--0L----0-----------------0-------------------------|
--------------0-----------------------0-------------|
----------------------------------------------------|


--------2--2L-2-----2-----------2--2--------2-------|
--------3--3L-3-----3-----------3--3--------3-------|
--------2--2L-2-----2-----------2--2--------2-------|
--0-----------------------0L----0-------------------|
--------------0L-0--------------------0-------------|
----------------------------------------------------|


--------2-----------2--2--------2-----------2--2----|
--------3-----------3--3--------3-----------3--3----|
--------2-----------2--2--------2-----------2--2----|
--0-----------------------0-------------------------|
--------------0-----------------------0-------------|
----------------------------------------------------|


--------2-----------2--2--------2-----------2--2----|
--------3-----------3--3--------3-----------3--3----|
--------2-----------2--2--------2-----------2--2----|
--0-----------------------0-------------------------|
--------------0-----------------------0-------------|
----------------------------------------------------|


--------3--3--------3-----------3--3--------3-------|
--------3--3--------3-----------3--3--------3-------|
--------0--0--------0-----------0--0--------0-------|
----------------------------------------------------|
----------------------------------------------------|
--3-----------------------3L----3-------------------|


--------3--3--------3-----------3--3--------3-------|
--------3--3--------3-----------3--3--------3-------|
--------0--0--------0-----------0--0--------0-------|
----------------------------------------------------|
----------------------------------------------------|
--3-----------------------3-------------------------|


--------0--0--------0-----------0--0--------0-------|
--------2--2--------2-----------2--2--------2-------|
--------2--2--------2-----------2--2--------2-------|
----------------------------------------------------|
--0L----0-----------------0-------------------------|
--------------0-----------------------0-------------|


--------0--0--------0-----------0--0--------0-------|
--------2--2--------2-----------2--2--------2-------|
--------2--2--------2-----------2--2--------2-------|
----------------------------------------------------|
--0L----0-----------------0-------------------------|
--------------0-----------------------0-------------|


--------2--2--------2-----------2--2--------2-------|
--------3--3--------3-----------3--3--------3-------|
--------2--2--------2-----------2--2--------2-------|
--0L----0-----------------0-------------------------|
--------------0-----------------------0-------------|
----------------------------------------------------|


--------2--2L-2-----2-----------2--2--------2-------|
--------3--3L-3-----3-----------3--3--------3-------|
--------2--2L-2-----2-----------2--2--------2-------|
--0-----------------------0L----0-------------------|
--------------0L-0--------------------0-------------|
----------------------------------------------------|


--------2-----------2--2--------2-----------2--2----|
--------3-----------3--3--------3-----------3--3----|
--------2-----------2--2--------2-----------2--2----|
--0-----------------------0-------------------------|
--------------0-----------------------0-------------|
----------------------------------------------------|


--------2-----------2--2--------2-----------2--2----|
--------3-----------3--3--------3-----------3--3----|
--------2-----------2--2--------2-----------2--2----|
--0-----------------------0-------------------------|
--------------0-----------------------0-------------|
----------------------------------------------------|


--------3--3--------3-----------3--3--------3-------|
--------0--0--------0-----------0--0--------0-------|
--------0--0--------0-----------0--0--------0-------|
----------------------------------------------------|
----------------------------------------------------|
--3-----------------------3L----3-------------------|


--------3--3--------3-----------3--3--------3-------|
--------0--0--------0-----------0--0--------0-------|
--------0--0--------0-----------0--0--------0-------|
----------------------------------------------------|
----------------------------------------------------|
--3-----------------------3-------------------------|


--------0--0--------0-----------0--0--------0-------|
--------2--2--------2-----------2--2--------2-------|
--------2--2--------2-----------2--2--------2-------|
----------------------------------------------------|
--0L----0-----------------0-------------------------|
--------------0-----------------------0-------------|


--------0--0--------0-----------0--0--------0-------|
--------2--2--------2-----------2--2--------2-------|
--------2--2--------2-----------2--2--------2-------|
----------------------------------------------------|
--0L----0-----------------0-------------------------|
--------------0-----------------------0-------------|


--------2--2--------2-----------2--2--------2L------|
--------3--3--------3-----------3--3--------3L------|
--------2--2--------2-----------2--2--------2L------|
--0L----0-----------------0-------------------------|
--------------0-----------------------0-------------|
----------------------------------------------------|


--2-------------------------------------------------|
--3-------------------------------------------------|
--2-------------------------------------------------|
--0-------------------------------------------------|
----------------------------------------------------|
----------------------------------------------------|


--------0-----------0--0--------0-----------0--0----|
--------0-----------0--0--------0-----------0--0----|
--------1-----------1--1--------1-----------1--1----|
--2-------------------------------------------------|
--------------2-----------------------2-------------|
--------------------------0-------------------------|


--------0-----------0--0--------0-----------0--0----|
--------0-----------0--0--------0-----------0--0----|
--------1-----------1--1--------1-----------1--1----|
----------------------------------------------------|
--------------2-----------------------2-------------|
--0-----------------------0-------------------------|


--------0--0--------0-----------0--0--------0-------|
--------2--2--------2-----------2--2--------2-------|
--------2--2--------2-----------2--2--------2-------|
----------------------------------------------------|
--0-----------------------0L----0-------------------|
--------------0-----------------------0-------------|


--------0--0--------0-----------0--0--------0-------|
--------2--2--------2-----------2--2--------2-------|
--------2--2--------2-----------2--2--------2-------|
----------------------------------------------------|
--0-----------------------0-------------------------|
--------------0-----------------------0-------------|


--------2--2--------2-----------2--2--------2-------|
--------4--4--------4-----------4--4--------4-------|
--------4--4--------4-----------4--4--------4-------|
----------------------------------------------------|
--2L----2-----------------2-------------------------|
--------------2-----------------------2-------------|


--------2--2--------2-----------2--2--------2-------|
--------4--4--------4-----------4--4--------4-------|
--------4--4--------4-----------4--4--------4-------|
----------------------------------------------------|
--2L----2-----------------2-------------------------|
--------------2-----------------------2-------------|


--------0--0--------0-----------0--0--------0-------|
--------0--0--------0-----------0--0--------0-------|
--------1--1--------1-----------1--1--------1-------|
--2L----2-----------------2-------------------------|
--------------2-----------------------2-------------|
----------------------------------------------------|


--------0--0L-0-----0-----------0--0--------0-------|
--------0--0L-0-----0-----------0--0--------0-------|
--------1--1L-1-----1-----------1--1--------1-------|
--2-----------------------2L----2-------------------|
--------------2L-2--------------------2-------------|
----------------------------------------------------|


--------0-----------0--0--------0-----------0--0----|
--------0-----------0--0--------0-----------0--0----|
--------1-----------1--1--------1-----------1--1----|
----------------------------------------------------|
--------------2-----------------------2-------------|
--0-----------------------0-------------------------|


--------0-----------0--0--------0-----------0--0----|
--------0-----------0--0--------0-----------0--0----|
--------1-----------1--1--------1-----------1--1----|
----------------------------------------------------|
--------------2-----------------------2-------------|
--0-----------------------0-------------------------|


--------0--0--------0-----------0--0--------0-------|
--------2--2--------2-----------2--2--------2-------|
--------2--2--------2-----------2--2--------2-------|
----------------------------------------------------|
--0-----------------------0L----0-------------------|
--------------0-----------------------0-------------|


--------0--0--------0-----------0--0--------0-------|
--------2--2--------2-----------2--2--------2-------|
--------2--2--------2-----------2--2--------2-------|
----------------------------------------------------|
--0-----------------------0-------------------------|
--------------0-----------------------0-------------|


--------2--2--------2-----------2--2--------2-------|
--------4--4--------4-----------4--4--------4-------|
--------4--4--------4-----------4--4--------4-------|
----------------------------------------------------|
--2L----2-----------------2-------------------------|
--------------2-----------------------2-------------|


--------2--2--------2-----------2--2--------2-------|
--------4--4--------4-----------4--4--------4-------|
--------4--4--------4-----------4--4--------4-------|
----------------------------------------------------|
--2L----2-----------------2-------------------------|
--------------2-----------------------2-------------|


--------0--0--------0-----------0--0--------0-------|
--------0--0--------0-----------0--0--------0-------|
--------1--1--------1-----------1--1--------1-------|
--2L----2-------------------------------------------|
--------------2-----------------------2-------------|
--------------------------0-------------------------|


--------0--0L-0-----0-----------0--0--------0-------|
--------0--0L-0-----0-----------0--0--------0-------|
--------1--1L-1-----1-----------1--1--------1-------|
--2-----------------------------2-------------------|
-----------------2--------------------2-------------|
--------------------------0-------------------------|


--------0-----------0--0--------0-----------0--0----|
--------0-----------0--0--------0-----------0--0----|
--------1-----------1--1--------1-----------1--1----|
----------------------------------------------------|
--------------2-----------------------2-------------|
--0-----------------------0-------------------------|


--------0-----------0--0--------0-----------0--0----|
--------0-----------0--0--------0-----------0--0----|
--------1-----------1--1--------1-----------1--1----|
--2-----------------------2-------------------------|
--------------2-----------------------2-------------|
----------------------------------------------------|


--------0--0--------0-----------0--0--------0-------|
--------2--2--------2-----------2--2--------2-------|
--------2--2--------2-----------2--2--------2-------|
----------------------------------------------------|
--0-----------------------0L----0-------------------|
--------------0-----------------------0-------------|


--------0--0--------0-----------0--0--------0-------|
--------2--2--------2-----------2--2--------2-------|
--------2--2--------2-----------2--2--------2-------|
----------------------------------------------------|
--0-----------------------0-------------------------|
--------------0-----------------------0-------------|


--------2--2--------2-----------2--2--------2-------|
--------4--4--------4-----------4--4--------4-------|
--------4--4--------4-----------4--4--------4-------|
----------------------------------------------------|
--2L----2-----------------2-------------------------|
--------------2-----------------------2-------------|


--------2--2--------2-----------2--2--------2-------|
--------4--4--------4-----------4--4--------4-------|
--------4--4--------4-----------4--4--------4-------|
----------------------------------------------------|
--2L----2-----------------2-------------------------|
--------------2-----------------------2-------------|


--------0--0--------0-----------0--0--------0-------|
--------0--0--------0-----------0--0--------0-------|
--------1--1--------1-----------1--1--------1-------|
--2L----2-------------------------------------------|
--------------2-----------------------2-------------|
--------------------------0-------------------------|


--------0--0L-0-----0-----------0--0--------0-------|
--------0--0L-0-----0-----------0--0--------0-------|
--------1--1L-1-----1-----------1--1--------1-------|
--2-----------------------2L----2-------------------|
--------------2L-2--------------------2-------------|
----------------------------------------------------|


--------0-----------0--0--------0-----------0--0----|
--------0-----------0--0--------0-----------0--0----|
--------1-----------1--1--------1-----------1--1----|
--2-----------------------2-------------------------|
--------------2-----------------------2-------------|
----------------------------------------------------|


--------0-----------0--0--------0-----------0--0----|
--------0-----------0--0--------0-----------0--0----|
--------1-----------1--1--------1-----------1--1----|
--2-----------------------2-------------------------|
--------------2-----------------------2-------------|
----------------------------------------------------|


--------0--0--------0-----------0--0--------0-------|
--------2--2--------2-----------2--2--------2-------|
--------2--2--------2-----------2--2--------2-------|
----------------------------------------------------|
--0-----------------------0L----0-------------------|
--------------0-----------------------0-------------|


--------0--0--------0-----------0--0--------0-------|
--------2--2--------2-----------2--2--------2-------|
--------2--2--------2-----------2--2--------2-------|
----------------------------------------------------|
--0-----------------------0-------------------------|
--------------0-----------------------0-------------|


--------2--2--------2-----------2--2--------2-------|
--------4--4--------4-----------4--4--------4-------|
--------4--4--------4-----------4--4--------4-------|
----------------------------------------------------|
--2L----2-----------------2-------------------------|
--------------2-----------------------2-------------|


--------2--2--------2-----------2--2--------2-------|
--------4--4--------4-----------4--4--------4-------|
--------4--4--------4-----------4--4--------4-------|
----------------------------------------------------|
--2L----2-----------------2-------------------------|
--------------2-----------------------2-------------|


--------0--0--------0-----------0--0--------0-------|
--------0--0--------0-----------0--0--------0-------|
--------1--1--------1-----------1--1--------1-------|
--2L----2-----------------2-------------------------|
--------------2-----------------------2-------------|
----------------------------------------------------|


--------0--0L-0-----0-----------0--0--------0-------|
--------0--0L-0-----0-----------0--0--------0-------|
--------1--1L-1-----1-----------1--1--------1-------|
--2-----------------------2L----2-------------------|
--------------2L-2--------------------2-------------|
----------------------------------------------------|


--------2--2--------2-----------2--2--------2-------|
--------4--4--------4-----------4--4--------4-------|
--------4--4--------4-----------4--4--------4-------|
----------------------------------------------------|
--2-----2-----------------2-------------------------|
--------------2-----------------------2-------------|


--------2--2--------2-----------2--2--------2-------|
--------4--4--------4-----------4--4--------4-------|
--------4--4--------4-----------4--4--------4-------|
----------------------------------------------------|
--2L----2-----------------2-------------------------|
--------------2-----------------------2-------------|


--------0--0--------0-----------0--0--------0-------|
--------0--0--------0-----------0--0--------0-------|
--------1--1--------1-----------1--1--------1-------|
--2L----2-----------------2-------------------------|
--------------2-----------------------2-------------|
----------------------------------------------------|


--------0--0L-0-----0-----------0--0----------------|----|----|----||
--------0--0L-0-----0-----------0--0----------------|----|----|----||
--------1--1L-1-----1-----------1--1----------------|----|----|----||
--2-----------------------2L----2-------------------|----|----|----||
--------------2L-2----------------------------------|----|----|----||
----------------------------------------------------|----|----|----||



v pdf (dorovod+ solova+ basa+ harmonika):
https://www.dropbox.com/s/0o7yetfg640fu9j/
Tu%C4%8Dn%C3%BD%2CMichal-B%C3%A1je%C4%8Dn%C3%A1%20%C5%BEensk%C3%A1.pdf

 
»
Tvoje obľúbené položky
Tvoje obľúbené položky
»
Nové albumy interpreta
Nové albumy interpreta
3xCD Tucny Michal Zlata kolekce
3xCD Zlata kolekce
CD Tucny Michal Pet minut snit
CD Pet minut snit
CD Tucny Michal Posledni album../slidepack
CD Posledni
album../slidepac
k
6xCD Varoius 100 nej country
6xCD 100 nej country
CD Tucny Michal Jizansky rok [e]
CD Jizansky rok [e]
DVD Tucny Michal Fidlej a hraj
DVD Fidlej a hraj

»
Najnovšie videá
Najnovšie videá

Michal Tučný - Báječná ženská [video]

Michal Tučný

BÁJEČNÁ ŽENSKÁ - Michal Tučný - ZLATO ČE

Báječná ženská text

Michal Tučný - Báječná ženská [video]

Michal Tučný / Rattlesnake Annie - Báječ
»
Najnavštevovanejšie piesne
Najnavštevovanejšie piesne
Báječná ženská - akordy a text

Pověste ho vejš - akordy a text

Tam u nebeských bran - akordy a text

Všichni jsou už v Mexiku - akordy a text

Všichni jsou už v Mexiku - akordy a text

Abych tu žil - akordy a text

Rovnou tady rovnou - akordy a text

Červená řeka - akordy a text

Pověste Ho Vejš - akordy a text

Prodavač - akordy a text

viac




home | interpreti | register piesní | cd & dvd shop | pripomienky/nápady | kontakt | ochrana údajov | inzercia
Copyright © Pavol Bacigál, 2000-2017. Všetky práva vyhradené.
TOPlist