Horkýže Slíže

piesne (676)

  texty (357) / preklady (2)
  akordy (235) / taby (242)
  noty (0) / slideshow (0)

články (450)
fotogaléria
diskusia
videá
diskografia
v obchode
odkazy
koncerty
sťahuj



pridaj vlastný článok

Horkýže Slíže:
Horkýže Slíže prichádzajú s novinkou Ratatata: Ten refrén nemá chybu! - Napísal Tomino - mar 7, 20172668 ZDIEĽAŤ NA FACEBOOK ZDIEĽAŤ NA TWITTER Nitrians... - manmagazin.sk


Horkýže Slíže:
Bubeník Horkýže Slíže mal poskytnúť štúdio fašistickej kapele - var pianoVariables = { mode : "init_cookie",... - sme.sk


Horkýže Slíže:
„Bude ako ešte nebolo“ Tvrdí organizátor obľúbeného Beša Music Festu
2016!
- Beša Music Fest je v Levickom kraji jeden z najväčších festivalov, ktorý ľudia n... - music-zone.eu


Chinaski:
Hudobníci budú na TOPFEST-e skladať rockovú maturitu. V porote sú aj Zuzana
Smatanová, či Polemic!
- Published by MUSIC ZONE on 24. marca 2016 | Komentáre vypnuté na Hudobníci budú na TO... - music-zone.eu


Horkýže Slíže:
Horkýže Slíže mieria do stredoveku - Pošli na FacebookPošli na TwitterPošli na GoogleVytlačiť Zdroj: © Server.sk, red... - server.sk


Horkýže Slíže:
Horkýže Slíže to na festivale v Pasohlávkach roztočia, návštevníci
zažijú rock and roll aj stredovek!
- ... - livemusic.sk


Horkýže Slíže:
Objavia sa na Rock for People - Na český festival Rock for People príde aj slovenská kapela Horkýže Slíže. Organi...


Horkýže Slíže:
Horkýže slíže na exkluzívnom turné so Sestrami aj operačným stolom! - ... - livemusic.sk


Horkýže Slíže:
Terchovský budzogáň opäť po roku - Terchovský budzogáň sa po ročnej pauze opäť usadí v lone nádhernej prírody a slo... - Pro:messa


Horkýže Slíže:
Horkýže Slíže a Pipes and Pints vyrazia na spoločné turné - Slovenská kapela Horkýže Slíže a pražská formácia Pipes and Pints vyrazia v októ...


 

Horkýže Slíže

Fanúšikov: 202



A B C Č D E F G H CH I J K L Ľ M N O P Q R S Š T U V W X Y Z Ž



ako:
Horkýže Slíže - Sex po telefóne (basa)
Horkýže Slíže - Sex po telefóne (basa)

tlač

edituj
Pesničku videlo 2119 návštevníkov.

Kvalita tabov :
Hodnotilo ľudí: 1 ohodnoť aj ty
Prispievateľ:

MateZ
  *** Autor textu: HS *** Autor hudby: HS
Horkýže Slíže - Sex po telefóne (basa)


Taby pre basgitaru, normálne ladenie EADG.


Intro (2x)
G--------------------------------------------------------------------------
D--------------------------------------------------------------------------
A------5-5------5-5------5-5-3333-5-5-3333-5-5-3333-5-5-3333-5-5------3-3--
E-6666-----6666-----6666-----------------------------------------1111------

Sloha (2x)
G--------------------------------------------------------------------------
D--------------------------------------------------------------------------
A------5-5------5-5------5-5-3333-5-5-3333-5-5-3333-5-5-3333-5-5------3-3--
E-6666-----6666-----6666-----------------------------------------1111------

Refrén (2x)
4x 2x 2x
G/------7-----//------5-----//------7----/-------------
D/*---7---7--*//*---5---5--*//*---7---7-*/--------------------
A/*-5--------*//*-3--------*//*-5-------*/------------------
E/------------//------------//-----------/----------

Sloha
Refrén

Sólo
G--------------------------------------------------------------------------
D--------------------------------------------------------------------------
A------5-5------5-5------5-5-3333-5-5-3333-5-5-3333-5-5-3333-5-5------3-3--
E-6666-----6666-----6666-----------------------------------------1111------

G--------------------------------------------------------------------------
D--------------------------------------------------------------------------
A------5--------5--------5-5-3333-5-5-3333-5-5-3333-5-5-3333-5-5------3-3--
E-6--------6--------6--------------------------------------------1111------

Refrén (2x)

Outro (4x)
G------------------
D------------------
A-77-11-3333-3333--
E------------------


Pripomienky, návrhy na otabovanie pesničiek zasielajte na: ac_MateZko@azet.sk

 
»
Tvoje obľúbené položky
Tvoje obľúbené položky
»
Nové albumy interpreta
Nové albumy interpreta
6
3xCD HorkÝŽe SlÍŽe Platinum collection '2013 (3cd)
3xCD Platinum
collection '2013
(3cd)
CD Horkyze Slize St. mary huana ganja
CD St. mary huana
ganja
DVD Horkyze Slize Necenzurovane
DVD Necenzurovane
CD Horkyze Slize 54 dole hlavou
CD 54 dole hlavou
CD Horkyze Slize Ukaz tu tvoju zoo
CD Ukaz tu tvoju
zoo
2xCD Horkyze Slize Festival chorobna/kyze sliz
2xCD Festival
chorobna/kyze
sliz

»
Najnovšie videá
Najnovšie videá

Horke sle - Sex po telefne

HORKݎE SL͎E & POLEMIC - Sex po telefn

Horke Sle + Polemic - Sex po telefn

Horke Sle - Sex po telefne

Horke sle - Sex po telefne

Horke Sle - Sex po telefne
»
Najnavštevovanejšie piesne
Najnavštevovanejšie piesne
Horná Dolná - akordy

Nazdar - text

Mám v pi*i na lehátku - text

L. A. G. song - akordy a text

Nazdar - správně - akordy a text

Horkýže Slíže - Horna Dolna Správne! - akordy a text

Mam v p*** na lehatku 100% - akordy

Horna Dolna Správne! - akordy a text

Malá Žužu - akordy a text

My fucking brother - akordy a text

Horná Dolná - akordy a text

R n′B Soul - akordy a text

Lesbian\'s and Gay\'s Song - akordy a text

Vójak - akordy a text

Mám pi*i na lehátku - akordy

Silný refrén - spravne - akordy a text

Cigarety - akordy a text

A ja sprostá - akordy a text

Ukaz tu tvoju Zoo - akordy a text

Emanuel Bacigala - akordy a text

viac




home | interpreti | register piesní | cd & dvd shop | pripomienky/nápady | kontakt | ochrana údajov | inzercia

TOPlist