Michal Tučný

piesne (229)

  texty (218) / preklady (0)
  akordy (114) / taby (4)
  noty (1) / slideshow (0)

články (34)
fotogaléria
diskusia
videá
diskografia
v obchode
odkazy
koncerty
sťahuj



pridaj vlastný článok

Michal Tučný:
Michal Tučný by oslavil sedmdesáté narozeniny - Legenda - Zlatá kolekce Na třech CD ve výpravné edici Zlatá kolekce najdete šedesát + ... - P.Malínsky


Band A:
COUNTRYFEST BOHUNICE 2016 sa predstavuje - Willie Jones (Foto: Countryfest Bohunice) Willie Jones (Foto: Countryfest Bohunice... - countryworld.cz


Pavel Bobek:
Nautilus Zdeňka Rytíře (online album) - Hodnotenie: 10 / 10 Pošli na Facebook Pošli na Twitter Pošli na Googl... - server.sk


Michal Tučný:
Stodola Michala Tučného startuje již dnes! - Vladimír Boryš Secký a Ondřej Hejma na SMT 2011 (Foto: Jiří Konc / CountryWorld.cz... - countryworld.cz


Michal Tučný:
Pepa Vojtek: „Písně Michala Tučného nestárnou“ - Přidáno: 20. 08. 2012, v 00:37 Autor: Jiří Konc Jubilejní patnáctý ročník festivalu S... - countryworld.cz


Michal Tučný:
VIDEO: Michal Tučný - Báječná ženská - muzikus.cz


Michal Tučný:
Stodola Michala Tučného nabídne country i pop - ceskenoviny.cz


Michal Tučný:
Stodola Michala Tučného se rozjede ve víru festivalové zábavy - novinky.cz


Michal Tučný:
Letošní Stodola Michala Tučného nabídne hvězdy country i popu - countryworld.cz


Michal Tučný:
Dvacítka nejoblíbenějších písniček Michala Tučného podle čtenářů CountryWorldu - countryworld.cz


 

Michal Tučný

Fanúšikov: 16



A B C Č D E F G H CH I J K L Ľ M N O P Q R S Š T U V W X Y Z Ž



ako:
Michal Tučný - Víš co ti sluší
Michal Tučný - Víš co ti sluší

tlač

edituj
V originále: Rainy Day People
Pesničku videlo 1892 návštevníkov.

Kvalita tabov : bez hodnotenia
Hodnotilo ľudí: 0 ohodnoť aj ty
Prispievateľ:

petr554
  *** Autor textu: P.Novotný, M.Tučný *** Autor hudby: Gordon Lightfoot
Tempo = 110
Takt 4/4
Guitar 1

Legend
L - tied note
x - dead note
h - hammer on/pull off
b - bend
s - slide
~ - vibrato
g - ghost note
> - accentuated note
t - trill
M - palm mute
. - staccato
P - popping (bass)
S - slapping (bass)
+ - tapping
W - wide vibrato
< - fade in
w - whammy bar
= - tremolo picking
v - brush up
^ - brush down
V - pick stroke up
n - pick stroke down


E |----------------------------|----------------------------|
B |--------------------2-------|--------2-----------2-------|
G |--------6--------2-----2----|-----2-----2-----2-----2----|
D |-----7-----7--6>------------|--4>----------2>------------|
A |----------------------------|----------------------------|
E |--5-------------------------|----------------------------|


----------------------------|----------------------------||
--------2-----------2-------|--------2-----------2-------||
-----2-----2-----2-----2----|-----2-----2-----2-----2----||
--------------2>------------|--------------2>------------||
--0>------------------------|--0>------------------------||
----------------------------|----------------------------||


---------------------------|----------------------------|
-------2-----------2-------|--------2-----------2-------|
o---2-----2-----2-----2----|-----2-----2-----2-----2----|
o------------2-------------|--------------2-------------|
-0-------------------------|--0-------------------------|
---------------------------|----------------------------|


--------2>----------2-------|--------2>----------2-------|
--------3>----------3-------|--------3>----------3-------|
-----2-----2-----2-----2----|-----2-----2-----2-----2----|
--------------4-------------|--------------4-------------|
--2-------------------------|--2-------------------------|
----------------------------|----------------------------|


--------2-----------2-------|----------------------------|
--------3-----------3-------|--------0-----------0-------|
-----2-----2-----2-----2----|--------1-----------1-------|
--0-----------0-------------|-----2-----2-----2-----2----|
----------------------------|--------------2-------------|
----------------------------|--0-------------------------|


--------0-----------0-------|----------------------------|
----------------------------|--------2-----------2-------|
-----2-----2-----2-----2----|-----2-----2-----2-----2----|
--------------2-------------|--------------2-------------|
--0-------------------------|--0-------------------------|
----------------------------|----------------------------|


----------------------------|--------0-----------0-------|
--------3-----------3-------|--------0-----------0-------|
-----2-----2-----2-----2----|----------------------------|
--0-----------4-------------|-----2-----2-----2-----2----|
----------------------------|--------------2-------------|
----------------------------|--0-------------------------|


----------------------------|----------------------------|
--------3-----------3-------|--------2-----------2-------|
-----2-----2-----2-----2----|-----2-----2-----2-----2----|
--0-----------4-------------|--------------2-------------|
----------------------------|--0-------------------------|
----------------------------|----------------------------|


----------------------------|--------0-----------0-------|-----0----------|
--------3-----------3-------|-----0-----0-----0----------|--------3-------|
-----2-----2-----2-----2----|-----------------------2----|-----------2----|
--0>----------0>------------|--2-----------2-------------|--0-------------|
----------------------------|----------------------------|----------------|
----------------------------|----------------------------|----------------|


----------------------------|---------------------------||
--------2-----------2-------|--------2-----------2------||
-----2-----2-----2-----2----|-----2-----2-----2-----2--o||
--------------6>------------|--4>----------2>----------o||
--0>------------------------|---------------------------||
----------------------------|---------------------------||


----------------------------|----------------------------|
--------2-----------2-------|--------2-----------2-------|
-----2-----2-----2-----2----|-----2-----2-----2-----2----|
--------------2-------------|--------------2-------------|
--0-------------------------|--0-------------------------|
----------------------------|----------------------------|


--------2>----------2-------|--------2>----------2-------|
--------3>----------3-------|--------3>----------3-------|
-----2-----2-----2-----2----|-----2-----2-----2-----2----|
--------------4-------------|--------------4-------------|
--2-------------------------|--2-------------------------|
----------------------------|----------------------------|


--------2-----------2-------|----------------------------|
--------3-----------3-------|--------0-----------0-------|
-----2-----2-----2-----2----|--------1-----------1-------|
--0-----------0-------------|-----2-----2-----2-----2----|
----------------------------|--------------2-------------|
----------------------------|--0-------------------------|


--------0-----------0-------|----------------------------|
----------------------------|--------2-----------2-------|
-----2-----2-----2-----2----|-----2-----2-----2-----2----|
--------------2-------------|--------------2-------------|
--0-------------------------|--0-------------------------|
----------------------------|----------------------------|


----------------------------|--------0-----------0-------|
--------3-----------3-------|--------0-----------0-------|
-----2-----2-----2-----2----|----------------------------|
--0-----------4-------------|-----2-----2-----2-----2----|
----------------------------|--------------2-------------|
----------------------------|--0-------------------------|


----------------------------|----------------------------|
--------3-----------3-------|--------2-----------2-------|
-----2-----2-----2-----2----|-----2-----2-----2-----2----|
--0-----------4-------------|--------------2-------------|
----------------------------|--0-------------------------|
----------------------------|----------------------------|


----------------------------|--------0-----------0-------|-----0----------|
--------3-----------3-------|-----0-----0-----0----------|--------3-------|
-----2-----2-----2-----2----|-----------------------2----|-----------2----|
--0>----------0>------------|--2-----------2-------------|--0-------------|
----------------------------|----------------------------|----------------|
----------------------------|----------------------------|----------------|


----------------------------|----------------------------|
--------2-----------2-------|--------2-----------2-------|
-----2-----2-----2-----2----|-----2-----2-----2-----2----|
--------------6>------------|--4>----------2>------------|
--0>------------------------|----------------------------|
----------------------------|----------------------------|


----------------------------|----------------------------|
--------2-----------2-------|--------2-----------2-------|
-----2-----2-----2-----2----|-----2-----2-----2-----2----|
--------------2>------------|--------------2>------------|
--0>------------------------|--0>------------------------|
----------------------------|----------------------------|


----------------------------|----------------------------|
--------2-----------2-------|--------2-----------2-------|
-----2-----2-----2-----2----|-----2-----2-----2-----2----|
--------------2>------------|----------------------------|
--0>------------------------|--5>----------4>------------|
----------------------------|----------------------------|


--------------------2-------|--------0-------------------|----------------|
--------3-----------3-------|--------------------0-------|--3-------------|
-----2-----2-----2-----2----|-----1-----1-----1-----2----|--2-------------|
--0-----------4-------------|--2-----------2-------------|--0-------------|
----------------------------|----------------------------|--0--------0----|
----------------------------|----------------------------|----------------|


--------------0L------------|--0----||
-----------2----------------|-------||
--------2-------------------|-------||
-----2----------------------|-------||
--0-------------------------|-------||
----------------------------|-------||

pdf pro 3 kytary:
https://www.dropbox.com/s/lw32j3wsnsk4yul/
Fe%C5%A1%C3%A1ci%20-%20V%C3%AD%C5%A1%20co%20ti%20slu%C5%A1%C3%AD.pdf

 
»
Tvoje obľúbené položky
Tvoje obľúbené položky
»
Nové albumy interpreta
Nové albumy interpreta
3xCD Tucny Michal Zlata kolekce
3xCD Zlata kolekce
CD Tucny Michal Pet minut snit
CD Pet minut snit
CD Tucny Michal Posledni album../slidepack
CD Posledni
album../slidepac
k
6xCD Varoius 100 nej country
6xCD 100 nej country
CD Tucny Michal Jizansky rok [e]
CD Jizansky rok [e]
DVD Tucny Michal Fidlej a hraj
DVD Fidlej a hraj

»
Najnovšie videá
Najnovšie videá

Waterloo / Michal Tučný.

Klokočí ( J.Suchý ,J.Šlitr ) cover akord

Greenhorns - Necekej uz dal

Co na Fešáky neplatí / Fešáci a M.Tučný.

Prázdný nádraží - Ozvěna / smlk /

Mám Tě rád,když spíš... - Fešáci / sml
»
Najnavštevovanejšie piesne
Najnavštevovanejšie piesne
Báječná ženská - akordy a text

Pověste ho vejš - akordy a text

Tam u nebeských bran - akordy a text

Všichni jsou už v Mexiku - akordy a text

Všichni jsou už v Mexiku - akordy a text

Abych tu žil - akordy a text

Rovnou tady rovnou - akordy a text

Červená řeka - akordy a text

Pověste Ho Vejš - akordy a text

Prodavač - akordy a text

viac




home | interpreti | register piesní | cd & dvd shop | pripomienky/nápady | kontakt | ochrana údajov | inzercia
Copyright © Pavol Bacigál, 2000-2017. Všetky práva vyhradené.
TOPlist