František Nedvěd

piesne (104)

  texty (95) / preklady (0)
  akordy (47) / taby (8)
  noty (0) / slideshow (0)

články (40)
fotogaléria
diskusia
videá
diskografia
v obchode
odkazy
koncerty
sťahuj



pridaj vlastný článok

František Nedvěd:
Před 20 lety přišlo na Nedvědy na Strahově bezmála 70 000 lidí! Dnes už spolu
slavné bratry neuvidíte…
- Bratři Jan a František Nedvědovi už spolu nezpívají. Bratři Jan a František Nedvědovi už... - blesk.cz


Cigánski Diabli:
Dnes sa začína šestnásty ročník Lodenice - Dnes sa začína šestnásty ročník Lodenice Festival / do nedele, Piešťany, Sĺňava  Už sa ... - sme.sk


Ahmed Má Hlad:
Festivalový víkend: bylo to krásné a nebylo toho dost - Prago Union | na serveru Lidovky.cz | aktuální zprávy 6. září 2013 7:00 | Lidovky.cz ... - lidovky.cz


František Nedvěd:
František Nedvěd poprvé na Stodole Michala Tučného - Koncert bratří Nedvědů, Beroun, 17.6.2012 (Foto: Jiří Konc / CountryWorld.cz) Kon... - countryworld.cz


Jaksi Taksi:
14. 5. 2011 Skiareál Horní Domky, Rokytnice nad Jizerou - 14. 5. 2011 Skiareál Horní Domky, Rokytnice nad Jizerou Již čtvrtý ročník tohoto stále...


Arena:
Lodenica: Program hlavnej scény známy! - Bleskovky - Kultura


Čechomor:
Prvé mená v programe festivalu Lodenica 2009 - folk.sk


František Nedvěd:
13. komnata Františka Nedvěda - eurotelevizia.sk


František Nedvěd:
František Nedvěd a Peoples spestria Bratislava-inline - František Nedvěd a Peoples spestria Bratislava-inline BRAT ISLAVA 28. augusta (SITA) - ...


Bokomara:
Lodenica: Obľúbené hudobné skupiny na jubileu nesmú chýbať - Lodenica: Obľúbené hudobné skupiny na jubileu nesmú chýbať Festival Zlatá Studňa LODEN...


 

František Nedvěd

Fanúšikov: 23



A B C Č D E F G H CH I J K L Ľ M N O P Q R S Š T U V W X Y Z Ž



ako:
František Nedvěd - Devatenáct
František Nedvěd - Devatenáct

tlač

edituj
Rok vzniku: 1970
V originále: If You Could Read My Mind
Pesničku videlo 3732 návštevníkov.

Kvalita tabov : bez hodnotenia
Hodnotilo ľudí: 0 ohodnoť aj ty
Prispievateľ:

petr554
  *** Autor textu: D. Vancura *** Autor hudby: Gordon Lightfoot
Devatenáct

Takt 4/4
Guitar (Capo 2)
Tempo 110bpm

G Gadd9
> >
E E E E E E E E E E E E E E E E
E||--------------------------|-----------------------------|
B||--------0--------0--------|--------0--------0-----------|
G||--------------0--------2--|--L--------2--------2-----0--|
D||-----0-----0--L-----0-----|--------------0--L-----0-----|
A||--------------------------|-----------------------------|
E||--3--L--------------------|--3-----L--------------------|


G Gadd9
> >
E E E E E E E E E E E E E E E E
--------------------------|-----------------------------|
--------0--------0--------|--------0--------0-----------|
--L-----------0--------2--|--L--------2--------2-----0--|
-----0-----0--L-----0-----|--------------0--L-----0-----|
--------------------------|-----------------------------|
--3--L--------------------|--3-----L--------------------|


G Gadd9
E E E E E E E E E E E E E E E E
--------------------------|-----------------------------|
--------0--------0--------|-----------0--------0--------|
--L--2--------0--------2--|--L-----2--------2--------2--|
-----------0--L-----0-----|--------------0--L-----0-----|
--------------------------|-----------------------------|
--3--L--------------------|--3-----L--------------------|


G/F
E E E E E E E E E E E E E E E E
---------------------------|--------------------------|
---------0--------0--------|--------0--------0--------|
--L---2--------2--------2--|--L--2--------2--------2--|
------------0--L-----0-----|-----------0--L-----0-----|
---------------------------|--------------------------|
--1---L--------------------|--1--L--------------------|


G Gadd9
E E E E E E E E E E E E E E E E
--------------------------|-----------------------------|
--------0--------0--------|-----------0--------0--------|
--L--2--------0--------2--|--L-----2--------2--------2--|
-----------0--L-----0-----|--------------0--L-----0-----|
--------------------------|-----------------------------|
--3--L--------------------|--3-----L--------------------|


G/F
E E E E E E E E E E E E E E E E
---------------------------|--------------------------|
---------0--------0--------|--------0--------0--------|
--L---2--------2--------2--|--L--2--------2--------2--|
------------0--L-----0-----|-----------0--L-----0-----|
---------------------------|--------------------------|
--1---L--------------------|--1--L--------------------|


G G7
E E E E E E E E E E E E E E E E
--------------------------|--------------------------|
--------0--------0--------|--------0--------0--------|
--L--0--------0--------0--|--L--0--------0--------0--|
-----------0--L-----0-----|-----------3--L-----3-----|
--------------------------|--------------------------|
--3--L--------------------|--3--L--------------------|


C D
E E E E E E E E E E E E E E E E
--------------------------|--------2--------2--------|
--------1--------1--------|-----3--------3--------3--|
--L--0--------0--------0--|--L--------2--L-----2-----|
-----------2--L-----2-----|--0--L--------------------|
--3--L--------------------|--------------------------|
--------------------------|--------------------------|


Em C
E E E E E E E E E E E E E E E E
--------------------------|--------------------------|
--L-----0--------0--------|--------1--------1--------|
-----0--------0--------0--|--L--0--------0--------0--|
-----------2--L-----2-----|-----------2--L-----2-----|
--------------------------|--3--L--------------------|
--0--L--------------------|--------------------------|


G C
E E E E E E E E E E E E E E E E
--------------------------|--------------------------|
--------0--------0--------|--------1--------1--------|
--L--0--------0--------0--|--L--0--------0--------0--|
-----------0--L-----0-----|-----------2--L-----2-----|
--------------------------|--3--L--------------------|
--3--L--------------------|--------------------------|


G/B A7sus4
E E E E E E E E E E E E E E E E
---------------------------|------------------------------|
---------3--------3--------|------------3--------3--------|
--L---0--------0--------0--|--L------0--------0--------0--|
------------0--L-----0-----|---------------2--L-----2-----|
--2---L--------------------|--0------L--------------------|
---------------------------|------------------------------|

da *Coda |1.Rep
D7 G
E E E E E E E E E E E E E E E E
--------------------------|--------------------------|
--------1--------1--------|--------0--------0--------|
--L--2--------2--------2--|--L--0--------0--------0--|
--0--L-----0--L-----0-----|-----------0--L-----0-----|
--------------------------|--------------------------|
--------------------------|--3--L--------------------|

|2.Rep (solo)
Gadd9 G
E E E E E E E E E E E E E E E E
------------------------------||--------------------------|
-----------0--------0---------||--------------------------|
--L-----2--------2--------2--*||--------0-----0-----0--2--|
--------------0--L-----0-----*||-----0-----0--L--4--------|
------------------------------||--------------------------|
--3-----L---------------------||--3-----------------------|


G/F
E E E E E E E E E E E E E E E E
--------------------------|----------------------------|
--------------------------|----------------------------|
--L-----0--L--------0-----|----------------------------|
-----0--------0--L-----0--|------3--3--3--3p--2--2--2--|
--------------------------|----------------------------|
--3--------3--L--3--------|--1------------1------------|


G
E E E E E E E E E E E E E E E E
---------------------------|--------------------------|
---------------------------|--------------------------|
---------------------------|--------0-----0-----0--2--|
--2p--0--0--0--0-----0-----|-----0-----0-----4--------|
------------------3-----2--|--L-----------------------|
--1------------1-----------|--3-----------------------|


G/F
E E E E E E E E E E E E E E E E
--------------------------|----------------------------|
--------------------------|----------------------------|
--------0--L--------0-----|----------------------------|
-----0--------0--L-----0--|------3--3--3--3p--2--2--2--|
--------------------------|----------------------------|
--3--------3--L--3--L-----|--1------------1------------|


G
E E E E E E E E E E E E E E E E
---------------------------|--------------------------|
---------------------------|--------0--------0--------|
---------------------------|--L--0--------0--------0--|
--2p--0--0--0--0-----0-----|-----------0--L-----0-----|
------------------3-----2--|--L-----------------------|
--1------------1-----------|--3--L--------------------|


G7 C
E E E E E E E E E E E E E E E E
--------------------------|--------------------------|
--------0--------0--------|--------1--------1--------|
--L--0--------0--------0--|--L--0--------0--------0--|
-----------3--L-----3-----|-----------2--L-----2-----|
--------------------------|--3--L--------------------|
--3--L--------------------|--------------------------|


D Em
E E E E E E E E E E E E E E E E
--------2--------2--------|--------------------------|
-----3--------3--------3--|--L-----0--------0--------|
--L--------2--L-----2-----|-----0--------0--------0--|
--0--L--------------------|-----------2--L-----2-----|
--------------------------|--------------------------|
--------------------------|--0--L--------------------|


C G
E E E E E E E E E E E E E E E E
--------------------------|--------------------------|
--------1--------1--------|--------0--------0--------|
--L--0--------0--------0--|--L--0--------0--------0--|
-----------2--L-----2-----|-----------0--L-----0-----|
--3--L--------------------|--------------------------|
--------------------------|--3--L--------------------|


C G/B
E E E E E E E E E E E E E E E E
--------------------------|---------------------------|
--------1--------1--------|---------3--------3--------|
--L--0--------0--------0--|--L---0--------0--------0--|
-----------2--L-----2-----|------------0--L-----0-----|
--3--L--------------------|--2---L--------------------|
--------------------------|---------------------------|


A7sus4 D7
E E E E E E E E E E E E E E E E
------------------------------|--------------------------|
------------3--------3--------|--------1--------1--------|
--L------0--------0--------0--|--L--2--------2--------2--|
---------------2--L-----2-----|--0--L-----0--L-----0-----|
--0------L--------------------|--------------------------|
------------------------------|--------------------------|


Em C
E E E E E E E E E E E E E E E E
--------------------------|--------------------------|
--------0--------0--------|--------1--------1--------|
--L--0--------0--------0--|--L--0--------0--------0--|
-----------2--L-----2-----|-----------2--L-----2-----|
--------------------------|--3--L--------------------|
--0--L--------------------|--------------------------|


G C
E E E E E E E E E E E E E E E E
--------------------------|--------------------------|
--------0--------0--------|--------1--------1--------|
--L--0--------0--------0--|--L--0--------0--------0--|
-----------0--L-----0-----|-----------2--L-----2-----|
--------------------------|--3--L--------------------|
--3--L--------------------|--------------------------|


G/B A7sus4
E E E E E E E E E E E E E E E E
---------------------------|------------------------------|
---------3--------3--------|------------3--------3--------|
--L---0--------0--------0--|--L------0--------0--------0--|
------------0--L-----0-----|---------------2--L-----2-----|
--2---L--------------------|--0------L--------------------|
---------------------------|------------------------------|


D7 C
E E E E E E E E E E E E E E E E
--------------------------|--------------------------|
--------1--------1--------|--------1--------1--------|
--L--2--------2--------2--|--L--0--------0--------0--|
--0--L-----0--L-----0-----|-----------2--L-----2-----|
--------------------------|--3--L--------------------|
--------------------------|--------------------------|


G/B A7sus4
E E E E E E E E E E E E E E E E
---------------------------|------------------------------|
---------3--------3--------|------------3--------3--------|
--L---0--------0--------0--|--L------0--------0--------0--|
------------0--L-----0-----|---------------2--L-----2-----|
--2---L--------------------|--0------L--------------------|
---------------------------|------------------------------|

D.C. al Coda || *Coda
D7 Em
E E E E E E E E E E E E E E E E
--------------------------||--------------------------|
--------1--------1--------||--------0--------0--------|
--L--2--------2--------2--||--L--0--------0--------0--|
--0--L-----0--L-----0-----||-----------2--L-----2-----|
--------------------------||--------------------------|
--------------------------||--0--L--------------------|


C G
E E E E E E E E E E E E E E E E
--------------------------|--------------------------|
--------1--------1--------|--------0--------0--------|
--L--0--------0--------0--|--L--0--------0--------0--|
-----------2--L-----2-----|-----------0--L-----0-----|
--3--L--------------------|--------------------------|
--------------------------|--3--L--------------------|


C G/B
E E E E E E E E E E E E E E E E
--------------------------|---------------------------|
--------1--------1--------|---------3--------3--------|
--L--0--------0--------0--|--L---0--------0--------0--|
-----------2--L-----2-----|------------0--L-----0-----|
--3--L--------------------|--2---L--------------------|
--------------------------|---------------------------|


A7sus4 D7
E E E E E E E E E E E E E E E E
------------------------------|--------------------------|
------------3--------3--------|--------1--------1--------|
--L------0--------0--------0--|--L--2--------2--------2--|
---------------2--L-----2-----|--0--L-----0--L-----0-----|
--0------L--------------------|--------------------------|
------------------------------|--------------------------|


C G/B
E E E E E E E E E E E E E E E E
--------------------------|---------------------------|
--------1--------1--------|---------3--------3--------|
--L--0--------0--------0--|--L---0--------0--------0--|
-----------2--L-----2-----|------------0--L-----0-----|
--3--L--------------------|--2---L--------------------|
--------------------------|---------------------------|


A7sus4 D7
E E E E E E E E E E E E E E E E
------------------------------|--------------------------|
------------3--------3--------|--------1--------1--------|
--L------0--------0--------0--|--L--2--------2--------2--|
---------------2--L-----2-----|--0--L-----0--L-----0-----|
--0------L--------------------|--------------------------|
------------------------------|--------------------------|


G
E E E E E E E E E E E E E E E E
--------------------------|--------------------------|
--------------------------|--------------------------|
--------0-----0-----0--2--|--L-----0--L--------0-----|
-----0-----0--L--4--------|-----0--------0--L-----0--|
--------------------------|--------------------------|
--3-----------------------|--3--------3--L--3--------|


G/F
E E E E E E E E E E E E E E E E
----------------------------|---------------------------|
----------------------------|---------------------------|
----------------------------|---------------------------|
------3--3--3--3p--2--2--2--|--2p--0--0--0--0-----0-----|
----------------------------|------------------3-----2--|
--1------------1------------|--1------------1-----------|


G
E E E E E E E E E E E E E E E E
--------------------------|--------------------------|
--------------------------|--------------------------|
--------0-----0-----0--2--|--------0--L--------0-----|
-----0-----0-----4--------|-----0--------0--L-----0--|
--L-----------------------|--------------------------|
--3-----------------------|--3--------3--L--3--L-----|


G/F
E E E E E E E E E E E E E E E E
----------------------------|---------------------------|
----------------------------|---------------------------|
----------------------------|---------------------------|
------3--3--3--3p--2--2--2--|--2p--0--0--0--0-----------|
----------------------------|------------------3--3--3--|
--1------------1------------|--1------------1-----------|


G
E E E E H
-----------------------||
-----------------------||
-----------------------||
-----------------------||
--3--2--2--0--2--------||
--3--L--------3--------||




Duration Legend
---------------
W - whole
H - half
Q - quarter
E - 8th
S - 16th
T - 32nd
X - 64th
. - note dotted
|-n-| - n-tuplets


Tablature Legend
----------------
L - tied note
x - dead note
g - grace note
(n) - ghost note
> - accentuded note
NH - natural harmonic
AH - artificial harmonic
TH - tapped harmonic
SH - semi harmonic
PH - pitch harmonic
h - hammer on
p - pull off
b - bend
br - bendRelease
pb - preBend
pbr - preBendRelease
brb - bendReleaseBend
\n/ - tremolo bar dip
\n - tremolo bar dive
-/n - tremolo bar Release up
/n\ - tremolo bar inverted dip
/n - tremolo bar return
-\n - tremolo bar Release down
S - shift slide
s - legato slide
/ - slide into from below or out of upwards
\ - slide into from above or out of downwards
~ - vibrato
W - wide vibrato
tr - trill
TP - tremolo picking
T - tapping
S - slap
P - pop
< - fade in
^ - brush up
v - brush down

Původní tab z ukazky v pdf (doprovod a solo gtr.):
https://www.dropbox.com/s/xw6w6gmg0slm5ld/
Nedved%2CFrantisek%20-%20Devatenact.pdf

 
»
Tvoje obľúbené položky
Tvoje obľúbené položky
»
Nové albumy interpreta
Nové albumy interpreta
2xCD Nedved Frantisek Galerie pisni
2xCD Galerie pisni
CSL Nedvedi Honza A Frantisek Frantisek/slidepack
CSL Frantisek/slidep
ack
6xCD Varoius 100 nej country
6xCD 100 nej country
CD Brontosauri Hlidej lasku,.. /zlate hity
CD Hlidej lasku,..
/zlate hity
CD Nedved Frantisek Pata
CD Pata
CD Nedved Frantisek Ctvrta sada
CD Ctvrta sada

»
Najnovšie videá
Najnovšie videá

František Nedvěd - Devatenáct let

frantisek nedved - devatenact let

Devatenact... F. Nedvěd

František Nedvěd - Devatenáct (Piano)

František Nedvěd & Tiebreak - Devatenáct

František Nedvěd - Devatenáct cover
»
Najnavštevovanejšie piesne
Najnavštevovanejšie piesne
Devatenáct - akordy a text

Podvod - akordy a text

Valčíček - text

Cherokee Bill - akordy a text

Můj zvon - akordy a text

Jablůňka - akordy a text

Jsem jenom chlap - akordy a text

Písnička je lék - akordy a text

Kočovní herci - taby

Svítání - akordy a text

viac




home | interpreti | register piesní | cd & dvd shop | pripomienky/nápady | kontakt | ochrana údajov | inzercia
Copyright © Pavol Bacigál, 2000-2017. Všetky práva vyhradené.
TOPlist