Pavel Lohonka Žalman

piesne (189)

  texty (185) / preklady (0)
  akordy (184) / taby (3)
  noty (0) / slideshow (0)

články (26)
fotogaléria
diskusia
videá
diskografia
v obchode
odkazy
koncerty
sťahuj



pridaj vlastný článok

Pavel Lohonka Žalman:
Festival Koněšínský Vendelín láká na Petra Bendeho, Kamelot, Žalmana
Lohonku i na spoustu rodinných atrakcí
- Festival Koněšínský Vendelín láká na Petra Bendeho, Kamelot, Žalmana Lohonku i na... - musicserver.cz


Bílé Inferno:
Folkové prázdniny oznamují „snový“ výběr domácích účinkujících - Festivaly Každé setkání s Ivou Bittovou, Anetou Langerovou, Katkou García, pís... - folktime.cz


Pavel Lohonka Žalman:
Žalmanův kabriolet se řítí vpřed s plnou nádrží - Jižní Čechy - Nové CD Cestující muž je pestré a přináší i magický vícehlas.... - denik.cz


Pavel Lohonka Žalman:
Triumf na cestě časem - Vyšlo jinde "Poprvé jsem byl v Lucerně v roce 1964, na soutěži trampských pís... - folktime.cz


Pavel Lohonka Žalman:
OBRAZEM: Žalman slavil v Metropolu, pokřtil desku Cestující muž - České Budějovice - Pavel Žalman Lohonka měl 23. března velký koncert ke svým 70. ... - denik.cz


Pavel Lohonka Žalman:
„Medaili dá Žalmanovi příští prezident.“ Folková legenda slavila v
Lucerně
- Praha /FOTOGALERIE/ - Písničkář Pavel Lohonka Žalman si 20. března, v den 70. naroz... - denik.cz


Pavel Lohonka Žalman:
Pavel Žalman Lohonka - Dokud umí lidé hrát a zpívat, nic je nedokáže
umlčet
- Vydáno: 17.03.2016 11:00 v sekci Rozhovory - Milan Menčík Pavel Žalman Lohonka bráz... - musicserver.cz


Pavel Lohonka Žalman:
Žalman přepřáhl a jeho kočár frčí dál, vícehlas se ale příliš
nedaří
- denik.cz


Pavel Lohonka Žalman:
Žalman obměnil po 14 letech kapelu - denik.cz


Pavel Lohonka Žalman:
Nový Žalman zní magicky, ačkoli nepřekvapí - denik.cz


 

Pavel Lohonka Žalman

Fanúšikov: 11



A B C Č D E F G H CH I J K L Ľ M N O P Q R S Š T U V W X Y Z Ž



ako:
Pavel Lohonka Žalman - Barevný šál
Pavel Lohonka Žalman - Barevný šál

tlač

edituj
V originále: The Water Is Wide
Poznámka: doplněna fingerstyle ver (12/2014)

Pesničku videlo 4287 návštevníkov.

Kvalita tabov : bez hodnotenia
Hodnotilo ľudí: 0 ohodnoť aj ty
Prispievateľ:

petr554
  *** Autor textu: Žalman *** Autor hudby: Tradicional
                           Barevný šál                       

Žalman Pavel Lohonka

Steel Guitar (fingerstyle ver)
Tempo 89bpm

Takt 4/4

Capo 5

E |--------0-------------------|--------0-------------------|
B |--------------2-----3-------|--------------2-----3-------|
G |-----------2-----2----------|-----------2-----2----------|
D |-----2--------2--------2----|-----2--------2--------2----|
A |--0-------------------------|--0-------------------------|
E |----------------------------|----------------------------|


--------0-------------------|--------0-------------------|
--------------2-----3-------|--------------2-----3-------|
-----------2-----2----------|-----------2-----2----------|
-----2--------2--------2----|-----2--------2--------2----|
--0-------------------------|--0-------------------------|
----------------------------|----------------------------|


--------2-----------2-------|--------0-------------------|
--------------3-------------|--------------2-----3-------|
-----------2-----2----------|-----------2-----2----------|
--0--4--------4--------4----|-----2--------2--------2----|
----------------------------|--0-------------------------|
----------------------------|----------------------------|


--------0-------------------|--------2-----------2-------|
--------------2-----3-------|--------------2-------------|
-----------2-----2----------|-----------2-----2----------|
-----2--------2--------2----|-----4--------4--------4----|
--0-----------0-------------|--4-------------------------|
----------------------------|----------------------------|


--------2-----------2-------|--------5-----5-------------|
--------------3-------------|--------------------7-------|
-----------2-----2----------|-----------4-----4----------|
--0--4--------4--------4----|-----6--------6--------6----|
----------------------------|--7-------------------------|
----------------------------|----------------------------|


--4-----------4-------------|--------4-----0-----4-------|
--------5-----------5-------|-----------2-----2----------|
-----------4-----4----------|-----1--------1--------1----|
-----6--------6--------6----|----------------------------|
--7-------------------------|--4-------------------------|
----------------------------|----------------------------|


--------2-----------2-------|--------4-----0-----4-------|
--------------3-------------|-----------2-----2----------|
-----------2-----2----------|-----1--------1--------1----|
--0--4--------4--------4----|----------------------------|
----------------------------|--4-------------------------|
----------------------------|----------------------------|


--------2-----------2-------|--------5-----5-------------|
--------------3-------------|--------------------7-------|
-----------2-----2----------|-----------4-----4----------|
--0--4--------4--------4----|-----6--------6--------6----|
----------------------------|--7-------------------------|
----------------------------|----------------------------|


--4-------------------------|--------0-------------------|
--------5--------5----------|--------------2-----3-------|
-----------4--4-----4-------|-----------2-----2----------|
-----6--------6--------6----|-----2--------2--------2----|
--7-------------------------|--0-------------------------|
----------------------------|----------------------------|


--------0-------------------|--------0-------------------|
--------------2-----3-------|--------------2-----3-------|
-----------2-----2----------|-----------2-----2----------|
-----2--------2--------2----|-----2--------2--------2----|
--0-------------------------|--0-------------------------|
----------------------------|----------------------------|


--------2-----------2-------|--------0-------------------|
--------------3-------------|--------------2-----3-------|
-----------2-----2----------|-----------2-----2----------|
--0--4--------4--------4----|-----2--------2--------2----|
----------------------------|--0-------------------------|
----------------------------|----------------------------|


--------0-------------------|--------2-----------2-------|
--------------2-----3-------|--------------2-------------|
-----------2-----2----------|-----------2-----2----------|
-----2--------2--------2----|-----4--------4--------4----|
--0-----------0-------------|--4-------------------------|
--------------------4-------|----------------------------|


--------2-----------2-------|--------5-----5-------------|
--------------3-------------|--------------------7-------|
-----------2-----2----------|-----------4-----4----------|
--0--4--------4--------4----|-----6--------6--------6----|
----------------------------|--7-------------------------|
----------------------------|----------------------------|


--4-----------4-------------|--------4-----------4-------|
--------5-----------5-------|--------------5-------------|
-----------4-----4----------|-----------6-----6----------|
-----6--------6--------6----|-----6--------6--------6----|
--7-------------------------|--4-------------------------|
----------------------------|----------------------------|


--------2-----------2-------|--------4-----------4-------|
--------------3-------------|--------------5-------------|
-----------2-----2----------|-----------6-----6----------|
--0--4--------4--------4----|-----6--------6--------6----|
----------------------------|--4-------------------------|
----------------------------|----------------------------|


--------2-----------2-------|--------5-----5-------------|
--------------3-------------|--------------------7-------|
-----------2-----2----------|-----------4-----4----------|
--0--4--------4--------4----|-----6--------6--------6----|
----------------------------|--7-------------------------|
----------------------------|----------------------------|


--4-------------------------|--------0-------------------|
--------5--------5----------|--------------3-----3-------|
-----------4--------4-------|-----------2-----2----------|
-----6--------6--------6----|-----2--------2--------2----|
--7-------------------------|--0-------------------------|
----------------------------|----------------------------|


--------0-------------------|--------0-------------------|
--------------2-----3-------|--------------2-----3-------|
-----------2-----2----------|-----------2-----2----------|
-----2--------2--------2----|-----2--------2--------2----|
--0-------------------------|--0-------------------------|
----------------------------|----------------------------|


--------2-----------2-------|--------0-------------------|
--------------3-------------|--------------2-----3-------|
-----------2-----2----------|-----------2-----2----------|
--0--4--------4--------4----|-----2--------2--------2----|
----------------------------|--0-------------------------|
----------------------------|----------------------------|


--------0-------------------|--------2-----------2-------|
--------------3-----3-------|--------------2-------------|
-----------2-----2----------|-----------2-----2----------|
-----2--------2--------2----|--------------4--------4----|
--0-----------0-------------|-----4----------------------|
--------------------4-------|--4-------------------------|


--------2-----------2-------|--------5-----5-------------|
--------------3-------------|--------------------7-------|
-----------2-----2----------|-----------4-----4----------|
--0--4--------4--------4----|-----6--------6--------6----|
----------------------------|--7-------------------------|
----------------------------|----------------------------|


--4-----------4-------------|--------4-----0-----4-------|
--------5-----------5-------|-----------2-----2----------|
-----------4-----4----------|-----1--------1--------1----|
-----6--------6--------6----|----------------------------|
--7-------------------------|--4-------------------------|
----------------------------|----------------------------|


--------2-----------2-------|--------4-----------4-------|
--------------3-------------|--------------5-------------|
-----------2-----2----------|-----------6-----6----------|
--0--4--------4--------4----|-----6--------6--------6----|
----------------------------|--4-------------------------|
----------------------------|----------------------------|


--------2-----------2-------|--------5-----5-------------|
--------------3-------------|--------------------7-------|
-----------2-----2----------|-----------4-----4----------|
--0--4--------4--------4----|-----6--------6--------6----|
----------------------------|--7-------------------------|
----------------------------|----------------------------|


--4-------------------------|--------0-------------------|
--------5--------5----------|--------------2-----3-------|
-----------4--4-----4-------|-----------2-----2----------|
-----6--------6--------6----|-----2--------2--------2----|
--7-------------------------|--0-------------------------|
----------------------------|----------------------------|


--------0-------------------|--------0-------------------|
--------------2-----3-------|--------------2-----3-------|
-----------2-----2----------|-----------2-----2----------|
-----2--------2--------2----|-----2--------2--------2----|
--0-------------------------|--0-------------------------|
----------------------------|----------------------------|


--------2-----------2-------|--------0-------------------|
--------------3-------------|--------------2-----3-------|
-----------2-----2----------|-----------2-----2----------|
-----4--------4--------4----|-----2--------2--------2----|
--0-------------------------|--0-------------------------|
----------------------------|----------------------------|


--------0-------------------|--------2-----------2-------|
--------------2-----3-------|--------------2-------------|
-----------2-----2----------|-----------2-----2----------|
-----2--------2--------2----|-----4--------4--------4----|
--0-----------0-----0-------|--4-------------------------|
----------------------------|----------------------------|


--------2-----------2-------|--------5-----5-------------|
--------------3-------------|--------------------7-------|
-----------2-----2----------|-----------4-----4----------|
--0--4--------4--------4----|-----6--------6--------6----|
----------------------------|--7-------------------------|
----------------------------|----------------------------|


--4-----------4-------------|--------4-----0-----4-------|
--------5-----------5-------|-----------2-----2----------|
-----------4-----4----------|-----1--------1--------2----|
-----6--------6--------6----|----------------------------|
--7-------------------------|--4-------------------------|
----------------------------|----------------------------|


--------2-----------2-------|--------4-----------4-------|
--------------3-------------|--------------5-------------|
-----------2-----2----------|-----------6-----6----------|
--0--4--------4--------4----|-----6--------6--------6----|
----------------------------|--4-------------------------|
----------------------------|----------------------------|


--------2-----------2-------|--------5-----5-------------|
--------------3-------------|--------------------7-------|
-----------2-----2----------|-----------4-----4----------|
--0--4--------4--------4----|-----6--------6--------6----|
----------------------------|--7-------------------------|
----------------------------|----------------------------|


--4-------------------------|--------0-------------------|
--------5--------5----------|--------------2-----3-------|
-----------4--4-----4-------|-----------2-----2----------|
-----6--------6--------6----|-----2--------4--------2----|
--7-------------------------|--0-------------------------|
----------------------------|----------------------------|


--------0-------------------|--------0-------------------|
--------------2-----3-------|--------------2-----3-------|
-----------2-----2----------|-----------2-----2----------|
-----2--------2--------2----|-----2--------2--------2----|
--0-------------------------|--0-------------------------|
----------------------------|----------------------------|


--------2-----------2-------|--------0-------------------|
--------------3-------------|--------------2-----3-------|
-----------2-----2----------|-----------2-----2----------|
--0--4--------4--------4----|-----2--------2--------2----|
----------------------------|--0-------------------------|
----------------------------|----------------------------|


--------0-------------------|--------2-----------2-------|
--------------2-----3-------|--------------2-------------|
-----------2-----2----------|-----------2-----2----------|
-----2--------2--------2----|-----4--------4--------4----|
--0-----------0-------------|--4-------------------------|
--------------------4-------|----------------------------|


--------2-----------2-------|--------5-----5-------------|
--------------3-------------|--------------------7-------|
-----------2-----2----------|-----6-----4-----4----------|
--0--4--------4--------4----|--7-----------6--------6----|
----------------------------|----------------------------|
----------------------------|----------------------------|


--4-----------4-------------|--------4-----------4-------|
--------5-----------5-------|--------------5-------------|
-----------4-----4----------|-----------6-----6----------|
-----6--------6--------6----|-----6--------6--------6----|
--7-------------------------|--4-------------------------|
----------------------------|----------------------------|


--------2-----------2-------|--------4-----------4-------|
--------------3-------------|--------------5-------------|
-----------2-----2----------|-----------6-----6----------|
--0--4--------4--------4----|-----6--------6--------6----|
----------------------------|--4-------------------------|
----------------------------|----------------------------|


--------2-----------2-------|--------5-----5-------------|
--------------3-------------|--------------------7-------|
-----------2-----2----------|-----------4-----4----------|
--0--4--------4--------4----|-----6--------6--------6----|
----------------------------|--7-------------------------|
----------------------------|----------------------------|


--4-------------------------|--------0-------------------|
--------5--------5----------|--------------2-----2-------|
-----------4--4-----4-------|-----------2-----2----------|
-----6--------6--------6----|-----2--------2--------2----|
--7-------------------------|--0-------------------------|
----------------------------|----------------------------|


--------0-------------------|
--------------2-----2-------|
-----------2-----2----------|
-----2--------2--------2----|
--0-------------------------|
----------------------------|


--------------0-------------------------------------|-------|----||
--------------------------2-----------2-------------|--3----|----||
--------------------2-----------2-------------------|--2----|----||
--------2-----------------2-----------------2-------|--2g---|----||
--0--------------------------------------------0L---|--0----|----||
----------------------------------------------------|-------|----||

Fingerstyle ver v pdf:
https://www.dropbox.com/s/mpcq6r1f69h2o9o/
Zalman_Barevn%C3%BD%20%C5%A1%C3%A1l_fingerstyle.pdf

******************************************************************
Původní zjednodušený doprovod:
Ladění eHGDAD
******************************************************************

D
E E E E E E E E E E E E E E E E
E||--------2-----------2-----|--------2-----------2-----|
B||--------3-----------3-----|--------3-----------3-----|
G||-----2-----2-----2-----2--|-----2-----2-----2-----2--|
D||--------------0-----------|--------------0-----------|
A||--------------------------|--------------------------|
D||--0-----------------------|--0-----------------------|


D G
E E E E E E E E E E E E E E E E
|---------2-----------2-----|--------3-----------3-----|
|---------3-----------3-----|--------0-----------0-----|
|*-----2-----2-----2-----2--|-----0-----0-----0-----0--|
|*--------------0-----------|--------------0-----------|
|---------------------------|--------------------------|
|---0-----------------------|--5-----------------------|


D
E E E E E E E E E E E E E E E E
--------2-----------2-----|--------2-----------2-----|
--------3-----------3-----|--------3-----------3-----|
-----2-----2-----2-----2--|-----2-----2-----2-----2--|
--------------0-----------|--------------0-----------|
--------------------------|--------------------------|
--0-----------------------|--0-----------------------|


Bm
E E E E E E E E E E E E E E E E
--------2-----------2-----|--------2-----------2-----|
--------3-----------3-----|--------3-----------3-----|
-----4-----4-----4-----4--|-----4-----4-----4-----4--|
--------------4-----------|--------------4-----------|
--2-----------------------|--2-----------------------|
--------------------------|--------------------------|


Em A7
E E E E E E E E E E E E E E E E
--------0-----------0-----|--------0-----------0-----|
--------0-----------0-----|--------2-----------2-----|
-----0-----0-----0-----0--|-----0-----0-----0-----0--|
--------------2-----------|--------------2-----------|
--------------------------|--0-----------------------|
--2-----------------------|--------------------------|


F#m
E E E E E E E E E E E E E E E E
---------2-----------2-----|--------2-----------2-----|
---------2-----------2-----|--------2-----------2-----|
------2-----2-----2-----2--|-----2-----2-----2-----2--|
---------------4-----------|--------------4-----------|
---------------------------|--------------------------|
--4------------------------|--4-----------------------|


Bm G
E E E E E E E E E E E E E E E E
--------2-----------2-----|--------3-----------3-----|
--------3-----------3-----|--------0-----------0-----|
-----4-----4-----4-----4--|-----0-----0-----0-----0--|
--------------4-----------|--------------0-----------|
--2-----------------------|--------------------------|
--------------------------|--5-----------------------|


Asus4 A7
E E E E E E E E E E E E E E E E
-----------0-----------0-----|--------0-----------0-----|
-----------3-----------3-----|--------2-----------2-----|
--------2-----2-----2-----2--|-----0-----0-----0-----0--|
-----------------2-----------|--------------2-----------|
--0--------------------------|--0-----------------------|
-----------------------------|--------------------------|


D G D
E E E E E E E E E E E E E E E E
--------2-----------3-----|--------2-----------2------||
--------3-----------0-----|--------3-----------3------||
-----2-----2-----0-----0--|-----2-----2-----2-----2--*||
--------------------------|--------------0-----------*||
--------------------------|---------------------------||
--0-----------5-----------|--0------------------------||


D
E E E E H
--------2-----2--------||
--------3-----3--------||
-----2-----2--2--------||
--------------0--------||
-----------------------||
--0--------------------||




Duration Legend
---------------
W - whole
H - half
Q - quarter
E - 8th
S - 16th
T - 32nd
X - 64th
. - note dotted
|-n-| - n-tuplets


Tablature Legend
----------------
L - tied note
x - dead note
g - grace note
(n) - ghost note
> - accentuded note
NH - natural harmonic
AH - artificial harmonic
TH - tapped harmonic
SH - semi harmonic
PH - pitch harmonic
h - hammer on
p - pull off
b - bend
br - bendRelease
pb - preBend
pbr - preBendRelease
brb - bendReleaseBend
\n/ - tremolo bar dip
\n - tremolo bar dive
-/n - tremolo bar Release up
/n\ - tremolo bar inverted dip
/n - tremolo bar return
-\n - tremolo bar Release down
S - shift slide
s - legato slide
/ - slide into from below or out of upwards
\ - slide into from above or out of downwards
~ - vibrato
W - wide vibrato
tr - trill
TP - tremolo picking
T - tapping
S - slap
P - pop
< - fade in
^ - brush up
v - brush down

 
»
Tvoje obľúbené položky
Tvoje obľúbené položky
»
Nové albumy interpreta
Nové albumy interpreta
6
CD Zalman Pavel Pisne sebrane.../slidepack
CD Pisne
sebrane.../slide
pack
CD Zalman A Spol. Laska a smrt/slidepack
CD Laska a
smrt/slidepack
CD Zalman A Spol. Budejky
CD Budejky
3xCD Zalman Pavel Pribehy
3xCD Pribehy
2xCD Zalman Pavel Mezi kameny
2xCD Mezi kameny
CD Zalman A Spol. Napis na stitu domu
CD Napis na stitu
domu

»
Najnovšie videá
Najnovšie videá

Barevn l

Ti pn - Pavel Lohonka alman & spol

Pavel Lohonka alman - Dlnice .5

alman a spol. - Divok horsk tymin

Pavel alman Lohonka "Tulck ukolbavka

Svat Kateino - Pavel alman Lohonka a
»
Najnavštevovanejšie piesne
Najnavštevovanejšie piesne
Divokej horskej tymián - akordy a text

Divoký horský tymián - taby

Jdem zpátky do lesů - akordy a text

Kdyby tady byla taková panenka - akordy a text

Ho ho Watanay - akordy a text

Rána v trávě - akordy a text

Jantarová země - akordy a text

Já písnička - akordy a text

Všech vandráků múza - akordy a text

Až mně bude - akordy a text

Barevný šál - taby

Píseň malých pěšáků - taby

Barevný šál - akordy a text

Nezacházej, slunce - akordy a text

Ztracený ráj - akordy a text

Dálnice číslo pět - akordy a text

Padlý anděl - akordy a text

Píseň malých pěšáků - akordy a text

Ráno bylo stejný - akordy a text

Avalon - akordy a text

viac




home | interpreti | register piesní | cd & dvd shop | pripomienky/nápady | kontakt | ochrana údajov | inzercia

TOPlist