Hospital Bukra

piesne (41)

  texty (22) / preklady (0)
  akordy (12) / taby (13)
  noty (0) / slideshow (0)

články (15)
fotogaléria
diskusia
videá
diskografia
v obchode
odkazy
koncerty
sťahuj



pridaj vlastný článok

Alone:
Topfest o jeden deň dlší! - Najväčší slovenský rockový festival pridáva v roku 2010 okrem priestoru aj tzv.nultý deň,...


Alone:
TOPFEST 2010 AJ S CAVALEROU CONSPIRACY A TANEČNOU SCÉNOU! - TOPFEST 2010 AJ S CAVALEROU CONSPIRACY A TANEČNOU SCÉNOU! Prvý letný prázdninový víken...


Anawi:
Červeník: Na 43. ročníku Čechomor i Václav Neckář - ČERVENÍK: Na 43. ročníku dychovky,folklór, Čechomor i Václav Neckář Červeník 5. august...


Alkehol:
Orava Rockfest štartuje v piatok v Námestove - Orava Rockfest štartuje v piatok v Námestove BRATISLAVA 29. júla (SITA) - Jeden z najš...


Casualties:
HARDfest 2008 uzavrel svoj program - HARDfest 2008 uzavrel svoj program BRATISLAVA 12. júna (SITA) - HARDfest 2008, ako jed...


Casualties:
Na druhom ročníku HARDfestu sa predstavia The Casualties - BRATISLAVA 10. marca (SITA) - Bohatá ponuka letných hudobných festivalov sa minulý rok roz...


Editor:
Najväčší punkový sviatok roka sa blíži! - Bleskovky - Kultura


Editor:
PUNK ISLAND VOL.6 - PUNK ISLAND VOL.6 20. – 21. júl 2007 Dobrohošť Najväčší punkoví sviatok roka sa blí...


Arzén:
Slovenské, české hudobné zoskupenia rôznych žánrov v Červeníku - ČERVENÍK 2007 10. – 11. – 12. 08. 2007 42. krát bude nielen samotná obec ČERVENÍK, ...


A Tak:
Various - Slovak Underground Punx Attack! Vol. II - musicstyle.sk


 

Hospital Bukra

Fanúšikov: 13



A B C Č D E F G H CH I J K L Ľ M N O P Q R S Š T U V W X Y Z Ž



ako:
Hospital Bukra - V Krajine Bohov
Hospital Bukra - V Krajine Bohov

tlač

edituj
Rok vzniku: 2006
Pesničku videlo 1898 návštevníkov.

Kvalita tabov :
Hodnotilo ľudí: 1 ohodnoť aj ty
Prispievateľ:

elizion
Autor hudby: Hospital Bukra
úvodny riff

E|-------------------------------------------------------------------
B|-10-x-x-10-x-x-10-x---8-x-x--8-x-x--8-x----------------------------
G|-10-x-x-10-x-x-10-x--10-x-x-10-x-x-10-x----------------------------
D|-------------------------------------------------------------------
A|-------------------------------------------------------------------
D|-------------------------------------------------------------------

E|-------------------------------------------------------------------
B|------8----------8~-------8----------8~----------------------------
G|-7h10---10--7h10-----7h10---10--7h10-------------------------------
D|-------------------------------------------------------------------
A|-------------------------------------------------------------------
D|-------------------------------------------------------------------

druhá gitara v slohe

E|-------------------------------------------------------------------
B|-------------------------------------------------------------------
G|-7--7--7---5--5--5----7--7--7---5--5--5----7--7--7---5--5--5-------
D|-7--7--7---5--5--5----7--7--7---5--5--5----7--7--7---5--5--5-------
A|-5--5--5---3--3--3----5--5--5---3--3--3----5--5--5---3--3--3-------
D|-------------------------------------------------------------------

E|-------------------------------------------------------------------
B|-------------------------------------------------------------------
G|-3-3-3-3-3-3-3-3--5-5-5-5-5-5-5-5----------------------------------
D|-3-3-3-3-3-3-3-3--5-5-5-5-5-5-5-5----------------------------------
A|-1-1-1-1-1-1-1-1--3-3-3-3-3-3-3-3----------------------------------
D|-------------------------------------------------------------------

sólo

E|-/13-13-12--13-13-12--13-12-10-------------------------------------
B|-------------------------------13br--------------------------------
G|-------------------------------------------------------------------
D|-------------------------------------------------------------------
A|-------------------------------------------------------------------
D|-------------------------------------------------------------------

E|-13p12p10-13p12p10-13p12p10-13p12p10-13p12p10-13p12p10-17~---------
B|-------------------------------------------------------------------
G|-------------------------------------------------------------------
D|-------------------------------------------------------------------
A|-------------------------------------------------------------------
D|-------------------------------------------------------------------

E|-17-15-13-15-13-12-13-12-10-12-10----10----------------------------
B|----------------------------------13-------------------------------
G|-------------------------------------------------------------------
D|-------------------------------------------------------------------
A|-------------------------------------------------------------------
D|-------------------------------------------------------------------

E|-10-----------10-----------10----------10~-------------------------
B|----13-10-13-----13-10-13-----13-10-13-----------------------------
G|-------------------------------------------------------------------
D|-------------------------------------------------------------------
A|-------------------------------------------------------------------
D|-------------------------------------------------------------------

medzihra

E|-------------------------------------------------------------------
B|-------------------------------------------------------------------
G|-----5--------5---------5--------5---------5--------5--------------
D|---3---3----5---5-----3---3----5---5-----3---3----5---5------------
A|-1--------3---------1--------3---------1--------3------------------
D|-------------------------------------------------------------------

E|-------------------------------------------------------------------
B|-------------------------------------------------------------------
G|-------------------------------------------------------------------
D|-5-5-5-5--7-7-7-7--8-8-8-8--10-10-10-10----------------------------
A|-5-5-5-5--7-7-7-7--8-8-8-8--10-10-10-10----------------------------
D|-5-5-5-5--7-7-7-7--8-8-8-8--10-10-10-10----------------------------


refrén

E|-------------------------------------------------------------------
B|-------------------------------------------------------------------
G|-----3-3--3-3-3/2--------------------------------3-3--3-3-3/2------
D|-0---3-3--3-3-3/2--5--------------0---0-2-3--0---3-3--3-3-3/2------
A|-0---1-1--1-1-1/0--5--------------0---0-2-3--0---1-1--1-1-1/0------
D|-0-----------------5---5-7-8-10---0---0-2-3--0---------------------

E|-------------------------------------------------------------------
B|-------------------------------------------------------------------
G|-------------------------------------------------------------------
D|---0---2---3---2---0-----------------------------------------------
A|-------------------------------------------------------------------
D|-5---5---5---5---5-------------------------------------------------


E|-------------------------------------------------------------------
B|-------------------------------------------------------------------
G|-----3-3--3-3-3/2--------------------------------3-3--3-3-3/2------
D|-0---3-3--3-3-3/2--5--------------0---0-2-3--0---3-3--3-3-3/2------
A|-0---1-1--1-1-1/0--5--------------0---0-2-3--0---1-1--1-1-1/0------
D|-0-----------------5---5-7-8-10---0---0-2-3--0---------------------

E|-------------------------------------------------------------------
B|-------------------------------------------------------------------
G|-------------------------------------------------------------------
D|---0---2---3---5---7-----------------------------------------------
A|-------------------------------------------------------------------
D|-5---5---5---5---5-------------------------------------------------

sólo na konci 4x

E|-------------------------------------------------------------------
B|-------------------------------------------------------------------
G|-------------------------------------------------------------------
D|-3~--3/5/7-5-7------/8-7-5-3~--------------------------------------
A|---------------7~--------------------------------------------------
D|-------------------------------------------------------------------

 
»
Tvoje obľúbené položky
Tvoje obľúbené položky
»
Nové albumy interpreta
Nové albumy interpreta

»
Najnovšie videá
Najnovšie videá

Hospital Bukra - V krajine bohov

hospital bukra v krajine bohou

Hospital Bukra - Iny nebudem

Hospital Bukra - Johny phm

Hospital Bukra - Letná

Hospital Bukra - Anča
»
Najnavštevovanejšie piesne
Najnavštevovanejšie piesne
Stará pani - text

Stará pani - akordy

Stará Paní - akordy a text

Stará pani - taby

Stara pani-intro 100%presne - taby

Anča - akordy a text

Stará pani - complet - taby

Motorova - intro - taby

Trpaslík - akordy

Hlava - akordy

viac




home | interpreti | register piesní | cd & dvd shop | pripomienky/nápady | kontakt | ochrana údajov | inzercia
Copyright © Pavol Bacigál, 2000-2017. Všetky práva vyhradené.
TOPlist