Michal Tučný

piesne (230)

  texty (218) / preklady (0)
  akordy (115) / taby (4)
  noty (1) / slideshow (0)

články (34)
fotogaléria
diskusia
videá
diskografia
v obchode
odkazy
koncerty
sťahuj



pridaj vlastný článok

Michal Tučný:
Michal Tučný by oslavil sedmdesáté narozeniny - Legenda - Zlatá kolekce Na třech CD ve výpravné edici Zlatá kolekce najdete šedesát + ... - P.Malínsky


Band A:
COUNTRYFEST BOHUNICE 2016 sa predstavuje - Willie Jones (Foto: Countryfest Bohunice) Willie Jones (Foto: Countryfest Bohunice... - countryworld.cz


Pavel Bobek:
Nautilus Zdeňka Rytíře (online album) - Hodnotenie: 10 / 10 Pošli na Facebook Pošli na Twitter Pošli na Googl... - server.sk


Michal Tučný:
Stodola Michala Tučného startuje již dnes! - Vladimír Boryš Secký a Ondřej Hejma na SMT 2011 (Foto: Jiří Konc / CountryWorld.cz... - countryworld.cz


Michal Tučný:
Pepa Vojtek: „Písně Michala Tučného nestárnou“ - Přidáno: 20. 08. 2012, v 00:37 Autor: Jiří Konc Jubilejní patnáctý ročník festivalu S... - countryworld.cz


Michal Tučný:
VIDEO: Michal Tučný - Báječná ženská - muzikus.cz


Michal Tučný:
Stodola Michala Tučného nabídne country i pop - ceskenoviny.cz


Michal Tučný:
Stodola Michala Tučného se rozjede ve víru festivalové zábavy - novinky.cz


Michal Tučný:
Letošní Stodola Michala Tučného nabídne hvězdy country i popu - countryworld.cz


Michal Tučný:
Dvacítka nejoblíbenějších písniček Michala Tučného podle čtenářů CountryWorldu - countryworld.cz


 

Michal Tučný

Fanúšikov: 16



A B C Č D E F G H CH I J K L Ľ M N O P Q R S Š T U V W X Y Z Ž



ako:
Michal Tučný - Blues Folsomské věznice
Michal Tučný - Blues Folsomské věznice

tlač

edituj
Rok vzniku: 1956
V originále: Folsom prieson blues
Pesničku videlo 5225 návštevníkov.

Kvalita tabov : bez hodnotenia
Hodnotilo ľudí: 0 ohodnoť aj ty
Prispievateľ:

petr554
  *** Autor textu: M.Tučný *** Autor hudby: J.Cash
                   Blues Folsomské věznice - solo                     
Michal Tučný / J. Cash

Takt 2/2

Solo
E
H Q Q Q Q E E Q
E||-----------------------|----------------------------|
B||-----------------------|--------12----15--12--15----|
G||----------------12s----|--13------------------------|
D||-----------------------|----------------------------|
A||-----------------------|----------------------------|
E||-----------------------|----------------------------|


Q H Q Q Q Q E E
-------------------------|----------------------------|
---L----12---------------|--------12----15----12--15--|
------------------12s----|--13------------------------|
-------------------------|----------------------------|
-------------------------|----------------------------|
-------------------------|----------------------------|


H. Q Q Q Q E E
-----------------------|----------------------------|
---L-------------------|--------12----15----12--15--|
----------------12s----|--13------------------------|
-----------------------|----------------------------|
-----------------------|----------------------------|
-----------------------|----------------------------|


Q H Q Q Q Q E E
-------------------------|----------------------------|
---L----12---------------|--------12----15----12--15--|
------------------12s----|--13------------------------|
-------------------------|----------------------------|
-------------------------|----------------------------|
-------------------------|----------------------------|


A
Q Q Q Q Q E E E E Q
--------------------------|-------------5--L----------|
---L----12----------------|-------------------5-------|
--------------13----------|--/(6)----6-----------6----|
--------------------14----|----7----------------------|
--------------------------|---------------------------|
--------------------------|---------------------------|


Q E E Q Q Q E E E E Q
----------5--L---------|-----------5--L----------|
------------------0----|--------5--------5--0----|
-------6---------------|--/6---------------------|
--7--------------------|-------------------------|
-----------------------|-------------------------|
-----------------------|-------------------------|


E
Q E E E E Q Q E E E E Q
-----------9--L-----------|------------0--L----------|
-------10--------10-------|---------0--------0-------|
--9------------------0----|--(1)----------------0----|
--------------------------|--(2)---------------------|
--------------------------|---2----------------------|
--------------------------|--------------------------|


Q E E E E Q Q E E E E Q
------------0--L------------|------------0--L------------|
---------0--------0---------|---------0--------0---------|
---1------------------0-----|---1------------------0-----|
--(2)----------------(2)----|--(2)----------------(2)----|
----------------------------|----------------------------|
----------------------------|----------------------------|


B7
Q E E E E Q Q E E E E Q
------------0--L----------|----------2--L----------|
---------0--------0-------|----------------0-------|
---1-----------------0----|-------2-----------2----|
--(2)---------------------|--1---------------------|
--------------------------|--2---------------------|
--------------------------|------------------------|


Q E E E E Q H H
----------2--L----------|--------------------|
----------------0-------|--------------------|
-------2-----------2----|--------------------|
--1---------------------|--------------------|
--2---------------------|--2--------2--------|
------------------------|--------------------|


E
> PM PM > PM PM
H E E Q Q E E Q E E
------------------------|------------------------|
------------------------|------------------------|
------------------------|----------1----------1--|
------------------------|-------2----------2-----|
--1---------------------|-------------2----------|
-----------2br--L--L----|--0---------------------|


> PM PM > PM PM
Q E E Q E E
------------------------||
------------------------||
----------1----------1--||
-------2----------2-----||
-------------2----------||
--0---------------------||

solo v pdf:
https://www.dropbox.com/s/1iwruz7bp5bk7as/
Blues_Folsonsk%C3%BD_v%C4%9Bznice-solo.pdf

komplet v pdf:
https://www.dropbox.com/s/2g3n3dojb0y2ftr/
Tucny%2CMichal-Blues%20folsomsky%20veznice.pdf


**********************************************
Doprovod: *
steel gtr, standard ladění *
**********************************************

E ||----------------|
B ||-----0>----0>---|
G ||-----2-----2----|
D ||-----1-----1----|
A ||--2-----2-------|
E ||----------------|


----------------------------|--------0--0--0-----0--0----|
--------0>-0--------0>------|--------0--0--0-----0--0----|
--------2--2--------2-------|--------1--1--1-----1--1----|
--------1--1>-------1-------|--2-----2--2--2-----2--2----|
--2-----------2-------------|--2-----2--2--2-----2--2----|
----------------------------|--0-------------------------|


--0-----0--0--0--0--0--0----|--------0--0--0-----0--0----|
--0-----0--0--0--0--0--0----|--------0--0--0-----0--0----|
--1-----1--1--1--1--1--1----|--------1--1--1-----1--1----|
--2-----2--2--2--2--2--2----|--2-----2--2--2-----2--2----|
--2-----2--2--2--2--2--2----|--2-----2--2--2-----2--2----|
----------------------------|--0-------------------------|


--0-----0--0--0--0--0--0----|--0-----0--0--0-----0--0----|
--0-----0--0--0--0--0--0----|--0-----0--0--0-----0--0----|
--1-----1--1--1--1--1--1----|--1-----1--1--1-----1--1----|
--2-----2--2--2--2--2--2----|--2-----2--2--2-----2--2----|
--2-----2--2--2--2--2--2----|--2-----2--2--2-----2--2----|
----------------------------|--0-----0--0--0-----0--0----|


--0-----0--0--0-----0--0----|--0-----0--0--0-----0--0----|
--0-----0--0--0-----0--0----|--0-----0--0--0-----0--0----|
--1-----1--1--1-----1--1----|--1-----1--1--1-----1--1----|
--2-----2--2--2-----2--2----|--2-----2--2--2-----2--2----|
--2-----2--2--2-----2--2----|--2-----2--2--2-----2--2----|
--0-----0--0--0-----0--0----|--0-----0--0--0-----0--0----|


--0-----0--0--0--0--0--0----|--0-----0--0--0-----0--0----|
--0-----0--0--0--0--0--0----|--0-----0--0--0-----0--0----|
--1-----1--1--1--1--1--1----|--1-----1--1--1-----1--1----|
--2-----2--2--2--2--2--2----|--2-----2--2--2-----2--2----|
--2-----2--2--2--2--2--2----|--2-----2--2--2-----2--2----|
----------------------------|--0-----0--0--0-----0--0----|


--0-----0--0--0-----0--0----|--0-----0--0--0-----0--0----|
--0-----0--0--0-----0--0----|--0-----0--0--0-----0--0----|
--1-----1--1--1-----1--1----|--1-----1--1--1-----1--1----|
--2-----2--2--2-----2--2----|--2-----2--2--2-----2--2----|
--2-----2--2--2-----2--2----|--2-----2--2--2-----2--2----|
--0-----0--0--0-----0--0----|--0-----0--0--0-----0--0----|


----------------------------|--------0--0--------0--0----|
--------3--3--3--3--3--3----|--------2--2--------2--2----|
--1-----1--1--1--1--1--1----|--2-----2--2--2-----2--2----|
--2-----2--2--2--2--2--2----|--2-----2--2--2-----2--2----|
--2-----2--2--2--2--2--2----|--0-----2--2--2-----2--2----|
--0-----0--0--0--0--0--0----|--------0--0--0-----0--0----|


--------0--0--------0--0----|--------0--0--------0--0----|
--------2--2--------2--2----|--------2--2--------2--2----|
--2-----2--2--2-----2--2----|--2-----2--2--2-----2--2----|
--2-----2--2--2-----2--2----|--2-----2--2--2-----2--2----|
--0-----2--2--2-----2--2----|--0-----2--2--2-----2--2----|
--------0--0--0-----0--0----|--------0--0--0-----0--0----|


--------0--0--------0--0----|--------0--0-----0--0--0----|
--------2--2--------2--2----|--------0--0-----0--0--0----|
--2-----2--2--2-----2--2----|--1-----1--1--1--1--1--1----|
--2-----2--2--2-----2--2----|--2-----2--2--2--2--2--2----|
--0-----2--2--2-----2--2----|--2-----2--2--2--2--2--2----|
--------0--0--0-----0--0----|--0-----0--0--0--0--0--0----|


--------0--0-----0--0--0----|--------0--0-----0--0--0----|
--------0--0-----0--0--0----|--------0--0-----0--0--0----|
--1-----1--1--1--1--1--1----|--1-----1--1--1--1--1--1----|
--2-----2--2--2--2--2--2----|--2-----2--2--2--2--2--2----|
--2-----2--2--2--2--2--2----|--2-----2--2--2--2--2--2----|
--0-----0--0--0--0--0--0----|--0-----0--0--0--0--0--0----|


--------0--0-----0--0--0----|--------2-----------2--2----|
--------0--0-----0--0--0----|--------0-----------0--0----|
--1-----1--1--1--1--1--1----|--2-----2-----2-----2--2----|
--2-----2--2--2--2--2--2----|--1-----1-----1-----1--1----|
--2-----2--2--2--2--2--2----|--2-----2-----2-----2--2----|
--0-----0--0--0--0--0--0----|----------------------------|


--------2-----------2--2----|----------------------------|
--------0-----------0--0----|--0-----0-----0--0--0--0----|
--2-----2-----2-----2--2----|--2-----2-----2--2--2--2----|
--1-----1-----1-----1--1----|--1-----1-----1--1--1--1----|
--2-----2-----2-----2--2----|--2-----2-----2--2--2--2----|
----------------------------|----------------------------|


----------------------------|--------0--0--0--0--0--0----|
--0-----0--0--0-----0--0----|--------0--0--0--0--0--0----|
--2-----2--2--2-----2--2----|--------1--1--1--1--1--1----|
--1-----1--1--1-----1--1----|--2-----2--2--2--2--2--2----|
--2-----2--2--2-----2--2----|--2-----2--2--2--2--2--2----|
----------------------------|--0-----0--0--0--0--0--0----|


--------0--0--0--0--0--0----|--0-----0--0--0-----0--0----|
--------0--0--0--0--0--0----|--0-----0--0--0-----0--0----|
--------1--1--1--1--1--1----|--1-----1--1--1-----1--1----|
--2-----2--2--2--2--2--2----|--2-----2--2--2-----2--2----|
--2-----2--2--2--2--2--2----|--2-----2--2--2-----2--2----|
--0-----0--0--0--0--0--0----|--0-----0--0--0-----0--0----|


--0-----0--0--0-----0--0----|--0-----0--0--0-----0--0----|
--0-----0--0--0-----0--0----|--0-----0--0--0-----0--0----|
--1-----1--1--1-----1--1----|--1-----1--1--1-----1--1----|
--2-----2--2--2-----2--2----|--2-----2--2--2-----2--2----|
--2-----2--2--2-----2--2----|--2-----2--2--2-----2--2----|
--0-----0--0--0-----0--0----|--0-----0--0--0-----0--0----|


--0-----0--0--0--0--0--0----|--0-----0--0--0-----0--0----|
--0-----0--0--0--0--0--0----|--0-----0--0--0-----0--0----|
--1-----1--1--1--1--1--1----|--1-----1--1--1-----1--1----|
--2-----2--2--2--2--2--2----|--2-----2--2--2-----2--2----|
--2-----2--2--2--2--2--2----|--2-----2--2--2-----2--2----|
----------------------------|--0-----0--0--0-----0--0----|


--0-----0--0--0-----0--0----|--0-----0--0--0-----0--0----|
--0-----0--0--0-----0--0----|--0-----0--0--0-----0--0----|
--1-----1--1--1-----1--1----|--1-----1--1--1-----1--1----|
--2-----2--2--2-----2--2----|--2-----2--2--2-----2--2----|
--2-----2--2--2-----2--2----|--2-----2--2--2-----2--2----|
--0-----0--0--0-----0--0----|--0-----0--0--0-----0--0----|


----------------------------|--------0--0--------0--0----|
--------3--3--3--3--3--3----|--------2--2--------2--2----|
--1-----1--1--1--1--1--1----|--2-----2--2--2-----2--2----|
--2-----2--2--2--2--2--2----|--2-----2--2--2-----2--2----|
--2-----2--2--2--2--2--2----|--0-----2--2--2-----2--2----|
--0-----0--0--0--0--0--0----|--------0--0--0-----0--0----|


--------0--0--------0--0----|--------0--0--------0--0----|
--------2--2--------2--2----|--------2--2--------2--2----|
--2-----2--2--2-----2--2----|--2-----2--2--2-----2--2----|
--2-----2--2--2-----2--2----|--2-----2--2--2-----2--2----|
--0-----2--2--2-----2--2----|--0-----2--2--2-----2--2----|
--------0--0--0-----0--0----|--------0--0--0-----0--0----|


--------0--0--------0--0----|--------0--0-----0--0--0----|
--------2--2--------2--2----|--------0--0-----0--0--0----|
--2-----2--2--2-----2--2----|--1-----1--1--1--1--1--1----|
--2-----2--2--2-----2--2----|--2-----2--2--2--2--2--2----|
--0-----2--2--2-----2--2----|--2-----2--2--2--2--2--2----|
--------0--0--0-----0--0----|--0-----0--0--0--0--0--0----|


--------0--0-----0--0--0----|--------0--0-----0--0--0----|
--------0--0-----0--0--0----|--------0--0-----0--0--0----|
--1-----1--1--1--1--1--1----|--1-----1--1--1--1--1--1----|
--2-----2--2--2--2--2--2----|--2-----2--2--2--2--2--2----|
--2-----2--2--2--2--2--2----|--2-----2--2--2--2--2--2----|
--0-----0--0--0--0--0--0----|--0-----0--0--0--0--0--0----|


--------0--0-----0--0--0----|--------2-----------2--2----|
--------0--0-----0--0--0----|--------0-----------0--0----|
--1-----1--1--1--1--1--1----|--2-----2-----2-----2--2----|
--2-----2--2--2--2--2--2----|--1-----1-----1-----1--1----|
--2-----2--2--2--2--2--2----|--2-----2-----2-----2--2----|
--0-----0--0--0--0--0--0----|----------------------------|


--------2-----------2--2----|----------------------------|
--------0-----------0--0----|--0-----0-----0--0--0--0----|
--2-----2-----2-----2--2----|--2-----2-----2--2--2--2----|
--1-----1-----1-----1--1----|--1-----1-----1--1--1--1----|
--2-----2-----2-----2--2----|--2-----2-----2--2--2--2----|
----------------------------|----------------------------|


----------------------------|--------0--0--0--0--0--0----|
--0-----0--0--0-----0--0----|--------0--0--0--0--0--0----|
--2-----2--2--2-----2--2----|--------1--1--1--1--1--1----|
--1-----1--1--1-----1--1----|--2-----2--2--2--2--2--2----|
--2-----2--2--2-----2--2----|--2-----2--2--2--2--2--2----|
----------------------------|--0-----0--0--0--0--0--0----|


--------0--0--0--0--0--0----|--0-----0--0--0-----0--0----|
--------0--0--0--0--0--0----|--0-----0--0--0-----0--0----|
--------1--1--1--1--1--1----|--1-----1--1--1-----1--1----|
--2-----2--2--2--2--2--2----|--2-----2--2--2-----2--2----|
--2-----2--2--2--2--2--2----|--2-----2--2--2-----2--2----|
--0-----0--0--0--0--0--0----|--0-----0--0--0-----0--0----|


--0-----0--0--0-----0--0----|--0-----0--0--0-----0--0----|
--0-----0--0--0-----0--0----|--0-----0--0--0-----0--0----|
--1-----1--1--1-----1--1----|--1-----1--1--1-----1--1----|
--2-----2--2--2-----2--2----|--2-----2--2--2-----2--2----|
--2-----2--2--2-----2--2----|--2-----2--2--2-----2--2----|
--0-----0--0--0-----0--0----|--0-----0--0--0-----0--0----|


--0-----0--0--0--0--0--0----|--0-----0--0--0-----0--0----|
--0-----0--0--0--0--0--0----|--0-----0--0--0-----0--0----|
--1-----1--1--1--1--1--1----|--1-----1--1--1-----1--1----|
--2-----2--2--2--2--2--2----|--2-----2--2--2-----2--2----|
--2-----2--2--2--2--2--2----|--2-----2--2--2-----2--2----|
----------------------------|--0-----0--0--0-----0--0----|


--0-----0--0--0-----0--0----|--0-----0--0--0-----0--0----|
--0-----0--0--0-----0--0----|--0-----0--0--0-----0--0----|
--1-----1--1--1-----1--1----|--1-----1--1--1-----1--1----|
--2-----2--2--2-----2--2----|--2-----2--2--2-----2--2----|
--2-----2--2--2-----2--2----|--2-----2--2--2-----2--2----|
--0-----0--0--0-----0--0----|--0-----0--0--0-----0--0----|


----------------------------|--------0--0--------0--0----|
--------3--3--3--3--3--3----|--------2--2--------2--2----|
--1-----1--1--1--1--1--1----|--2-----2--2--2-----2--2----|
--2-----2--2--2--2--2--2----|--2-----2--2--2-----2--2----|
--2-----2--2--2--2--2--2----|--0-----2--2--2-----2--2----|
--0-----0--0--0--0--0--0----|--------0--0--0-----0--0----|


--------0--0--------0--0----|--------0--0--------0--0----|
--------2--2--------2--2----|--------2--2--------2--2----|
--2-----2--2--2-----2--2----|--2-----2--2--2-----2--2----|
--2-----2--2--2-----2--2----|--2-----2--2--2-----2--2----|
--0-----2--2--2-----2--2----|--0-----2--2--2-----2--2----|
--------0--0--0-----0--0----|--------0--0--0-----0--0----|


--------0--0--------0--0----|--------0--0-----0--0--0----|
--------2--2--------2--2----|--------0--0-----0--0--0----|
--2-----2--2--2-----2--2----|--1-----1--1--1--1--1--1----|
--2-----2--2--2-----2--2----|--2-----2--2--2--2--2--2----|
--0-----2--2--2-----2--2----|--2-----2--2--2--2--2--2----|
--------0--0--0-----0--0----|--0-----0--0--0--0--0--0----|


--------0--0-----0--0--0----|--------0--0-----0--0--0----|
--------0--0-----0--0--0----|--------0--0-----0--0--0----|
--1-----1--1--1--1--1--1----|--1-----1--1--1--1--1--1----|
--2-----2--2--2--2--2--2----|--2-----2--2--2--2--2--2----|
--2-----2--2--2--2--2--2----|--2-----2--2--2--2--2--2----|
--0-----0--0--0--0--0--0----|--0-----0--0--0--0--0--0----|


--------0--0-----0--0--0----|--------2-----------2--2----|
--------0--0-----0--0--0----|--------0-----------0--0----|
--1-----1--1--1--1--1--1----|--2-----2-----2-----2--2----|
--2-----2--2--2--2--2--2----|--1-----1-----1-----1--1----|
--2-----2--2--2--2--2--2----|--2-----2-----2-----2--2----|
--0-----0--0--0--0--0--0----|----------------------------|


--------2-----------2--2----|----------------------------|
--------0-----------0--0----|--0-----0-----0--0--0--0----|
--2-----2-----2-----2--2----|--2-----2-----2--2--2--2----|
--1-----1-----1-----1--1----|--1-----1-----1--1--1--1----|
--2-----2-----2-----2--2----|--2-----2-----2--2--2--2----|
----------------------------|----------------------------|


----------------------------|--------0--0--0--0--0--0----|
--0-----0--0--0-----0--0----|--------0--0--0--0--0--0----|
--2-----2--2--2-----2--2----|--------1--1--1--1--1--1----|
--1-----1--1--1-----1--1----|--2-----2--2--2--2--2--2----|
--2-----2--2--2-----2--2----|--2-----2--2--2--2--2--2----|
----------------------------|--0-----0--0--0--0--0--0----|


--------0--0--0--0--0--0----|--0-----0--0--0-----0--0----|
--------0--0--0--0--0--0----|--0-----0--0--0-----0--0----|
--------1--1--1--1--1--1----|--1-----1--1--1-----1--1----|
--2-----2--2--2--2--2--2----|--2-----2--2--2-----2--2----|
--2-----2--2--2--2--2--2----|--2-----2--2--2-----2--2----|
--0-----0--0--0--0--0--0----|--0-----0--0--0-----0--0----|


--0-----0--0--0-----0--0----|--0-----0--0--0-----0--0----|
--0-----0--0--0-----0--0----|--0-----0--0--0-----0--0----|
--1-----1--1--1-----1--1----|--1-----1--1--1-----1--1----|
--2-----2--2--2-----2--2----|--2-----2--2--2-----2--2----|
--2-----2--2--2-----2--2----|--2-----2--2--2-----2--2----|
--0-----0--0--0-----0--0----|--0-----0--0--0-----0--0----|


--0-----0--0--0--0--0--0----|--0-----0--0--0-----0--0----|
--0-----0--0--0--0--0--0----|--0-----0--0--0-----0--0----|
--1-----1--1--1--1--1--1----|--1-----1--1--1-----1--1----|
--2-----2--2--2--2--2--2----|--2-----2--2--2-----2--2----|
--2-----2--2--2--2--2--2----|--2-----2--2--2-----2--2----|
----------------------------|--0-----0--0--0-----0--0----|


--0-----0--0--0-----0--0----|--0-----0--0--0-----0--0----|
--0-----0--0--0-----0--0----|--0-----0--0--0-----0--0----|
--1-----1--1--1-----1--1----|--1-----1--1--1-----1--1----|
--2-----2--2--2-----2--2----|--2-----2--2--2-----2--2----|
--2-----2--2--2-----2--2----|--2-----2--2--2-----2--2----|
--0-----0--0--0-----0--0----|--0-----0--0--0-----0--0----|


----------------------------|--------0--0--------0--0----|
--------3--3--3--3--3--3----|--------2--2--------2--2----|
--1-----1--1--1--1--1--1----|--2-----2--2--2-----2--2----|
--2-----2--2--2--2--2--2----|--2-----2--2--2-----2--2----|
--2-----2--2--2--2--2--2----|--0-----2--2--2-----2--2----|
--0-----0--0--0--0--0--0----|--------0--0--0-----0--0----|


--------0--0--------0--0----|--------0--0--------0--0----|
--------2--2--------2--2----|--------2--2--------2--2----|
--2-----2--2--2-----2--2----|--2-----2--2--2-----2--2----|
--2-----2--2--2-----2--2----|--2-----2--2--2-----2--2----|
--0-----2--2--2-----2--2----|--0-----2--2--2-----2--2----|
--------0--0--0-----0--0----|--------0--0--0-----0--0----|


--------0--0--------0--0----|--------0--0-----0--0--0----|
--------2--2--------2--2----|--------0--0-----0--0--0----|
--2-----2--2--2-----2--2----|--1-----1--1--1--1--1--1----|
--2-----2--2--2-----2--2----|--2-----2--2--2--2--2--2----|
--0-----2--2--2-----2--2----|--2-----2--2--2--2--2--2----|
--------0--0--0-----0--0----|--0-----0--0--0--0--0--0----|


--------0--0-----0--0--0----|--------0--0-----0--0--0----|
--------0--0-----0--0--0----|--------0--0-----0--0--0----|
--1-----1--1--1--1--1--1----|--1-----1--1--1--1--1--1----|
--2-----2--2--2--2--2--2----|--2-----2--2--2--2--2--2----|
--2-----2--2--2--2--2--2----|--2-----2--2--2--2--2--2----|
--0-----0--0--0--0--0--0----|--0-----0--0--0--0--0--0----|


--------0--0-----0--0--0----|--------2-----------2--2----|
--------0--0-----0--0--0----|--------0-----------0--0----|
--1-----1--1--1--1--1--1----|--2-----2-----2-----2--2----|
--2-----2--2--2--2--2--2----|--1-----1-----1-----1--1----|
--2-----2--2--2--2--2--2----|--2-----2-----2-----2--2----|
--0-----0--0--0--0--0--0----|----------------------------|


--------2-----------2--2----|----------------------------|
--------0-----------0--0----|--0-----0-----0--0--0--0----|
--2-----2-----2-----2--2----|--2-----2-----2--2--2--2----|
--1-----1-----1-----1--1----|--1-----1-----1--1--1--1----|
--2-----2-----2-----2--2----|--2-----2-----2--2--2--2----|
----------------------------|----------------------------|


----------------------------|--------0--0--0--0--0--0----|
--0-----0--0--0-----0--0----|--------0--0--0--0--0--0----|
--2-----2--2--2-----2--2----|--------1--1--1--1--1--1----|
--1-----1--1--1-----1--1----|--2-----2--2--2--2--2--2----|
--2-----2--2--2-----2--2----|--2-----2--2--2--2--2--2----|
----------------------------|--0-----0--0--0--0--0--0----|


--------0--0--0--0--0--0----|--0-----0--0--0-----0--0----|
--------0--0--0--0--0--0----|--0-----0--0--0-----0--0----|
--------1--1--1--1--1--1----|--1-----1--1--1-----1--1----|
--2-----2--2--2--2--2--2----|--2-----2--2--2-----2--2----|
--2-----2--2--2--2--2--2----|--2-----2--2--2-----2--2----|
--0-----0--0--0--0--0--0----|--0-----0--0--0-----0--0----|


--0-----0--0--0-----0--0----|--0-----0--0--0-----0--0----|
--0-----0--0--0-----0--0----|--0-----0--0--0-----0--0----|
--1-----1--1--1-----1--1----|--1-----1--1--1-----1--1----|
--2-----2--2--2-----2--2----|--2-----2--2--2-----2--2----|
--2-----2--2--2-----2--2----|--2-----2--2--2-----2--2----|
--0-----0--0--0-----0--0----|--0-----0--0--0-----0--0----|


--0-----0--0--0--0--0--0----|--0-----0--0--0-----0--0----|
--0-----0--0--0--0--0--0----|--0-----0--0--0-----0--0----|
--1-----1--1--1--1--1--1----|--1-----1--1--1-----1--1----|
--2-----2--2--2--2--2--2----|--2-----2--2--2-----2--2----|
--2-----2--2--2--2--2--2----|--2-----2--2--2-----2--2----|
----------------------------|--0-----0--0--0-----0--0----|


--0-----0--0--0-----0--0----|--0-----0--0--0-----0--0----|
--0-----0--0--0-----0--0----|--0-----0--0--0-----0--0----|
--1-----1--1--1-----1--1----|--1-----1--1--1-----1--1----|
--2-----2--2--2-----2--2----|--2-----2--2--2-----2--2----|
--2-----2--2--2-----2--2----|--2-----2--2--2-----2--2----|
--0-----0--0--0-----0--0----|--0-----0--0--0-----0--0----|


----------------------------|--------0--0--------0--0----|
--------3--3--3--3--3--3----|--------2--2--------2--2----|
--1-----1--1--1--1--1--1----|--2-----2--2--2-----2--2----|
--2-----2--2--2--2--2--2----|--2-----2--2--2-----2--2----|
--2-----2--2--2--2--2--2----|--0-----2--2--2-----2--2----|
--0-----0--0--0--0--0--0----|--------0--0--0-----0--0----|


--------0--0--------0--0----|--------0--0--------0--0----|
--------2--2--------2--2----|--------2--2--------2--2----|
--2-----2--2--2-----2--2----|--2-----2--2--2-----2--2----|
--2-----2--2--2-----2--2----|--2-----2--2--2-----2--2----|
--0-----2--2--2-----2--2----|--0-----2--2--2-----2--2----|
--------0--0--0-----0--0----|--------0--0--0-----0--0----|


--------0--0--------0--0----|--------0--0-----0--0--0----|
--------2--2--------2--2----|--------0--0-----0--0--0----|
--2-----2--2--2-----2--2----|--1-----1--1--1--1--1--1----|
--2-----2--2--2-----2--2----|--2-----2--2--2--2--2--2----|
--0-----2--2--2-----2--2----|--2-----2--2--2--2--2--2----|
--------0--0--0-----0--0----|--0-----0--0--0--0--0--0----|


--------0--0-----0--0--0----|--------0--0-----0--0--0----|
--------0--0-----0--0--0----|--------0--0-----0--0--0----|
--1-----1--1--1--1--1--1----|--1-----1--1--1--1--1--1----|
--2-----2--2--2--2--2--2----|--2-----2--2--2--2--2--2----|
--2-----2--2--2--2--2--2----|--2-----2--2--2--2--2--2----|
--0-----0--0--0--0--0--0----|--0-----0--0--0--0--0--0----|


--------0--0-----0--0--0----|--------2-----------2--2----|
--------0--0-----0--0--0----|--------0-----------0--0----|
--1-----1--1--1--1--1--1----|--2-----2-----2-----2--2----|
--2-----2--2--2--2--2--2----|--1-----1-----1-----1--1----|
--2-----2--2--2--2--2--2----|--2-----2-----2-----2--2----|
--0-----0--0--0--0--0--0----|----------------------------|


--------2-----------2--2----|----------------------------|
--------0-----------0--0----|--0-----0-----0--0--0--0----|
--2-----2-----2-----2--2----|--2-----2-----2--2--2--2----|
--1-----1-----1-----1--1----|--1-----1-----1--1--1--1----|
--2-----2-----2-----2--2----|--2-----2-----2--2--2--2----|
----------------------------|----------------------------|


----------------------------|--------0--0--0--0--0--0----|
--0-----0--0--0-----0--0----|--------0--0--0--0--0--0----|
--2-----2--2--2-----2--2----|--------1--1--1--1--1--1----|
--1-----1--1--1-----1--1----|--2-----2--2--2--2--2--2----|
--2-----2--2--2-----2--2----|--2-----2--2--2--2--2--2----|
----------------------------|--0-----0--0--0--0--0--0----|


--------0--0--0--0--0--0----|--0-----0--0--0-----0--0----|
--------0--0--0--0--0--0----|--0-----0--0--0-----0--0----|
--------1--1--1--1--1--1----|--1-----1--1--1-----1--1----|
--2-----2--2--2--2--2--2----|--2-----2--2--2-----2--2----|
--2-----2--2--2--2--2--2----|--2-----2--2--2-----2--2----|
--0-----0--0--0--0--0--0----|--0-----0--0--0-----0--0----|


--0-----0--0--0-----0--0----|--0-----0--0--0-----0--0----|
--0-----0--0--0-----0--0----|--0-----0--0--0-----0--0----|
--1-----1--1--1-----1--1----|--1-----1--1--1-----1--1----|
--2-----2--2--2-----2--2----|--2-----2--2--2-----2--2----|
--2-----2--2--2-----2--2----|--2-----2--2--2-----2--2----|
--0-----0--0--0-----0--0----|--0-----0--0--0-----0--0----|


--0-----0--0--0--0--0--0----|--0-----0--0--0-----0--0----|
--0-----0--0--0--0--0--0----|--0-----0--0--0-----0--0----|
--1-----1--1--1--1--1--1----|--1-----1--1--1-----1--1----|
--2-----2--2--2--2--2--2----|--2-----2--2--2-----2--2----|
--2-----2--2--2--2--2--2----|--2-----2--2--2-----2--2----|
----------------------------|--0-----0--0--0-----0--0----|


--0-----0--0--0-----0--0----|--0-----0--0--0-----0--0----|
--0-----0--0--0-----0--0----|--0-----0--0--0-----0--0----|
--1-----1--1--1-----1--1----|--1-----1--1--1-----1--1----|
--2-----2--2--2-----2--2----|--2-----2--2--2-----2--2----|
--2-----2--2--2-----2--2----|--2-----2--2--2-----2--2----|
--0-----0--0--0-----0--0----|--0-----0--0--0-----0--0----|


----------------------------|--------0--0--------0--0----|
--------3--3--3--3--3--3----|--------2--2--------2--2----|
--1-----1--1--1--1--1--1----|--2-----2--2--2-----2--2----|
--2-----2--2--2--2--2--2----|--2-----2--2--2-----2--2----|
--2-----2--2--2--2--2--2----|--0-----2--2--2-----2--2----|
--0-----0--0--0--0--0--0----|--------0--0--0-----0--0----|


--------0--0--------0--0----|--------0--0--------0--0----|
--------2--2--------2--2----|--------2--2--------2--2----|
--2-----2--2--2-----2--2----|--2-----2--2--2-----2--2----|
--2-----2--2--2-----2--2----|--2-----2--2--2-----2--2----|
--0-----2--2--2-----2--2----|--0-----2--2--2-----2--2----|
--------0--0--0-----0--0----|--------0--0--0-----0--0----|


--------0--0--------0--0----|--------0--0-----0--0--0----|
--------2--2--------2--2----|--------0--0-----0--0--0----|
--2-----2--2--2-----2--2----|--1-----1--1--1--1--1--1----|
--2-----2--2--2-----2--2----|--2-----2--2--2--2--2--2----|
--0-----2--2--2-----2--2----|--2-----2--2--2--2--2--2----|
--------0--0--0-----0--0----|--0-----0--0--0--0--0--0----|


--------0--0-----0--0--0----|--------0--0-----0--0--0----|
--------0--0-----0--0--0----|--------0--0-----0--0--0----|
--1-----1--1--1--1--1--1----|--1-----1--1--1--1--1--1----|
--2-----2--2--2--2--2--2----|--2-----2--2--2--2--2--2----|
--2-----2--2--2--2--2--2----|--2-----2--2--2--2--2--2----|
--0-----0--0--0--0--0--0----|--0-----0--0--0--0--0--0----|


--------0--0-----0--0--0----|--------2-----------2--2----|
--------0--0-----0--0--0----|--------0-----------0--0----|
--1-----1--1--1--1--1--1----|--2-----2-----2-----2--2----|
--2-----2--2--2--2--2--2----|--1-----1-----1-----1--1----|
--2-----2--2--2--2--2--2----|--2-----2-----2-----2--2----|
--0-----0--0--0--0--0--0----|----------------------------|


--------2-----------2--2----|----------------------------|
--------0-----------0--0----|--0-----0-----0--0--0--0----|
--2-----2-----2-----2--2----|--2-----2-----2--2--2--2----|
--1-----1-----1-----1--1----|--1-----1-----1--1--1--1----|
--2-----2-----2-----2--2----|--2-----2-----2--2--2--2----|
----------------------------|----------------------------|


----------------------------|--------0--0--0-----0--0----|
--0-----0--0--0-----0--0----|--------0--0--0-----0--0----|
--2-----2--2--2-----2--2----|--------1--1--1-----1--1----|
--1-----1--1--1-----1--1----|--2-----2--2--2-----2--2----|
--2-----2--2--2-----2--2----|--2-----2--2--2-----2--2----|
----------------------------|--0-----0--0--0-----0--0----|


--------0--0--0--0--0--0----|----------------------------|
--------0--0--0--0--0--0----|--0-----0--0--0-----0--0----|
--------1--1--1--1--1--1----|--2-----2--2--2-----2--2----|
--2-----2--2--2--2--2--2----|--1-----1--1--1-----1--1----|
--2-----2--2--2--2--2--2----|--2-----2--2--2-----2--2----|
--0-----0--0--0--0--0--0----|----------------------------|

^
----------------------------|----------------------------|--0L---|
--0-----0--0--0--0--0-------|--------0--0--0-----0-------|--0L---|
--2-----2--2--2--2--2-------|--------1--1--1-----0-------|--1L---|
--1-----1--1--1--1--1-------|--2-----2--2--2-----0-------|--2L---|
--2-----2--2--2--2--2-------|--2-----2--2--2-------------|-------|
----------------------------|--0-----0--0--0-------------|-------|


--0-------------||
--0-------------||
--1-------------||
--2-------------||
----------------||
----------------||


Duration Legend
---------------
W - whole
H - half
Q - quarter
E - 8th
S - 16th
T - 32nd
X - 64th
. - note dotted
|-n-| - n-tuplets


Tablature Legend
----------------
L - tied note
x - dead note
g - grace note
(n) - ghost note
> - accentuded note
NH - natural harmonic
AH - artificial harmonic
TH - tapped harmonic
SH - semi harmonic
PH - pitch harmonic
h - hammer on
p - pull off
b - bend
br - bendRelease
pb - preBend
pbr - preBendRelease
brb - bendReleaseBend
\n/ - tremolo bar dip
\n - tremolo bar dive
-/n - tremolo bar Release up
/n\ - tremolo bar inverted dip
/n - tremolo bar return
-\n - tremolo bar Release down
S - shift slide
s - legato slide
/ - slide into from below or out of upwards
\ - slide into from above or out of downwards
~ - vibrato
W - wide vibrato
tr - trill
TP - tremolo picking
T - tapping
S - slap
P - pop
< - fade in
^ - brush up
v - brush down

 
»
Tvoje obľúbené položky
Tvoje obľúbené položky
»
Nové albumy interpreta
Nové albumy interpreta
CD Tucny Michal Posledni kovboj - live
CD Posledni kovboj
- live
CD Tucny Michal Nezachazej slunce
CD Nezachazej
slunce
3xCD Tucny Michal Zlata kolekce
3xCD Zlata kolekce
CD Tucny Michal Pet minut snit
CD Pet minut snit
CD Tucny Michal Posledni album../slidepack
CD Posledni
album../slidepac
k
6xCD Varoius 100 nej country
6xCD 100 nej country

»
Najnovšie videá
Najnovšie videá

Michal Tučný - Blues Folsomské Věznice [

Kabát - Blues Folsomské věznice

Blues Folsomské věznice - Michal Tučný -

Michal Tučný - Blues folsomské věznice [

Kliďánko "Blues Folsomské věznice" count

Údolí radosti - Blues Folsomské věznice.
»
Najnavštevovanejšie piesne
Najnavštevovanejšie piesne
Báječná ženská - akordy a text

Pověste ho vejš - akordy a text

Tam u nebeských bran - akordy a text

Všichni jsou už v Mexiku - akordy a text

Všichni jsou už v Mexiku - akordy a text

Abych tu žil - akordy a text

Rovnou tady rovnou - akordy a text

Červená řeka - akordy a text

Pověste Ho Vejš - akordy a text

Prodavač - akordy a text

viac




home | interpreti | register piesní | cd & dvd shop | pripomienky/nápady | kontakt | ochrana údajov | inzercia
Copyright © Pavol Bacigál, 2000-2017. Všetky práva vyhradené.
TOPlist