Pacifik

piesne (81)

  texty (78) / preklady (0)
  akordy (57) / taby (2)
  noty (0) / slideshow (0)

články (13)
fotogaléria
diskusia
videá
diskografia
v obchode
odkazy
koncerty
sťahuj



pridaj vlastný článok

Heuréka:
Trampové ze všech stran - Několik desek inspirovaných trampskou muzikou ke mně dorazilo a je to zajímavé srovná... - folktime.cz


Cigánski Diabli:
Dnes sa začína šestnásty ročník Lodenice - Dnes sa začína šestnásty ročník Lodenice Festival / do nedele, Piešťany, Sĺňava  Už sa ... - sme.sk


Arena:
Lodenica: Program hlavnej scény známy! - Bleskovky - Kultura


Čechomor:
Prvé mená v programe festivalu Lodenica 2009 - folk.sk


Pavel Bobek:
Zajtra začína Country Fest Rozmarín 2008 - 8. a 9. augusta v amfiteátri v Terchovej sa uskutoční 3. ročník festivalu Country Fest Roz...


Backwards:
17. Folkový kvítek již tuto sobotu - folktime.cz


Bluesberry:
Malostranská beseda slaví... - folktime.cz


Adriena Bartošová:
Hudobný videokalendár na sobotu 12. apríla - Hudobný videokalendár na sobotu 12. apríla 12.apríla 1978 sa v škótskom Kirkcaldy naro...


Pacifik:
Pozvání od Vaška Maršálka znovu na trhu - Pozvání od Vaška Maršálka znovu na trhu Vašek Maršálek, bývalý člen a také kapelník P...


Asonance:
Průvodce festivaly na následující víkend - freemusic.cz


 

Pacifik

Fanúšikov: 5



A B C Č D E F G H CH I J K L Ľ M N O P Q R S Š T U V W X Y Z Ž



ako:
Pacifik - Když příjdou chvíle poslední (M.A.S.H)
Pacifik - Když příjdou chvíle poslední (M.A.S.H)

tlač

edituj
V originále: Suicide Is Painless
Pesničku videlo 4341 návštevníkov.

Kvalita tabov : bez hodnotenia
Hodnotilo ľudí: 0 ohodnoť aj ty
Prispievateľ:

petr554
  *** Autor textu: Pacifik
                    Když příjdou chvíle poslední                      

Ladění (DADGHe)

Acoustic gtr. (Capo 3)

takt 4/4(2/4)
tempo 109 BPM

Předehra
Am
E E E E H E E E Q E Q
E||-----------------------------|-------------------------|
B||--------------1--0--L--------|-------------------------|
G||-----------------------------|--------2--0----2p--0----|
D||-----------2-----------------|-----2-------------------|
A||--0--------------------------|--0----------------------|
D||-----------------------------|-------------------------|


E E E E E E E E E E E E E E E E
--------------------------|--------------------------|
--------1--0--L-----------|--------1--3--------------|
--------------------2--0--|--------------------2-----|
-----2-----------2--------|-----2-----------2-----2--|
--0-----------L-----------|--0-----------L-----------|
--------------------------|--------------------------|

Sloka
Dm
E E E E E E Q Q E E E E E E
--------------------3----||---1----0--1--L--0--L--1--|
--------1--0-------------||-----------------------0--|
-------------------------||*--2----2-----------------|
-----2-----------2-------||*--0----0-----------0-----|
--0-----------0----------||--------------------------|
-------------------------||--------------0-----------|


E E E E Q Q Q E E E E E E
--L--0------------------|--0-------0--L--------0--|
-----0-----3-------3----|--1----3--------3-----1--|
-------------------0----|-------5-----------0--2--|
--------------0----0----|-------5-----------------|
------------------------|--3----------------------|
--5-----0---------------|-------------5-----------|


E E E E Q E E Q E E E E E E
--L----------------0-----|-------------------------|
--L--3--3--1--L----1--3--|--L----1--3-----1--L--3--|
--L----------------2--2--|----------2-----------4--|
--------2-------------3--|-------3--------3-----5--|
--0-----------0----------|-------3-----------------|
-------------------------|--3----------3-----------|


E E E E Q E E Q E E E E E E
-------------------------|-------------------------|
--3----------------3-----|-------0--------0--------|
--4--5-----4-------4--5--|----------5-----0-----5--|
-------------------5--5--|-------5-----------------|
--------5-----5----5-----|--3----------3-----------|
--5----------------------|-------5-----------5-----|


E E E E E E E E E E E E E E E E Q Q
-----------0--------------|--------------------------|-------3----|
-----3-----1-----------3--|-----0--3--0--2--2-----2--|--L---------|
-----5-----------0--2-----|--0-----------0--0--L--0--|--L---------|
--------2-----------------|--------------2--2--L--2--|--L---------|
--0-----------0-----------|--0-----------0-----------|--0---------|
--------------------------|--------------------------|------------|


Q E E E E E E E E Q Q Q
--5----3--5-----3-----5--|--L--3------------3----|
----------------------3--|--L--3------------3----|
--2----2--------------4--|-----4--0---------4----|
--3----------------------|------------------5----|
--5----------------------|-----------------------|
-------3-----0-----3-----|--5----------5---------|


Q E E E E E E E E Q Q Q
--5----3--5-----3-----5--|-----3------------3----|
--5----1--------1-----5--|------------------1----|
--5----2-----------2-----|-----5--2---------2----|
-------------------------|-----------------------|
--0----------0-----------|--0----------0---------|
-------------------------|-----------------------|


v
Q E E E E Q Q Q Q Q
--0----3--5-----8-------|--10----8----5----3----|
------------------------|--10---------6----6----|
--2----2----------------|--10--------------4----|
--3----------------0----|---0-------------------|
-------3----------------|---0-------------------|
--3----------0----------|---0---------5---------|


v
Q E E E E Q E E E E E E Q
--5-------------0-------|--------------------3----|
--5-------1-------------|--------1--0-------------|
--5----2-----------2----|-------------------------|
--2---------------------|-----------------2-------|
-------------0----------|-----2--------0----------|
------------------------|--2----------------------|


Q E E E E E E E E E E Q Q
--1----0--1--L--0--L--1--|--L--0------------------|
----------------------0--|--L--0-----3-------3----|
--2----2-----------------|-------------------0----|
-------0-----------0-----|--------------0----0----|
-------------------------|------------------------|
--0----------0-----------|--5-----0---------------|


Q E E E E E E E E E E Q E E
--0-------0--L--------0--|--L----------------0-----|
--1----3--------3-----1--|--L--3-----1-------1--3--|
-------5-----------0--2--|--L----------------2--2--|
-------5-----------------|--------2-------------3--|
--3----------------------|--0-----------0----------|
-------------5-----------|-------------------------|


Q E E E E E E E E E E Q E E
-------------------------|-------------------------|
-------1--3-----1--L--3--|--3----------------3-----|
----------2-----------4--|--4--5-----4-------4--5--|
-------3--------3-----5--|--5----------------5--5--|
-------3-----------------|--------5-----5----5-----|
--3----------3-----------|--5----------------------|


Q E E E E E E E E E E E E E E
-------------------------|-----------0--------------|
-------0--------0--------|-----3-----1-----------3--|
----------5-----0-----5--|-----5-----------0--2-----|
-------5-----------------|--------2-----------------|
--3----------3-----------|--0-----------0-----------|
-------5-----------5-----|--------------------------|


E E E E E E E E Q Q Q E E E E E E
--------------------------|-------3----|--5----3--5-----3-----5--|
-----0--3--0--2--2--L--2--|------------|----------------------3--|
--0-----------0--0--L--0--|------------|--2----2--------------4--|
--------------2--2--L--2--|------------|--3----3-----0-----3-----|
--0-----------0-----------|--0---------|--5----------------------|
--------------------------|------------|-------------------------|


E E Q Q Q Q E E E E E E
--L--3------------3----|--5----3--5-----3-----5--|
--L--3------------3----|--5----1--------1-----5--|
--L--4--0---------4----|--5----2-----------2-----|
------------------5----|-------------------------|
-----------------------|--0----------0-----------|
--5----------5---------|-------------------------|


E E Q Q Q Q E E E E Q
-----3------------3----|--0----3--5-----8-------|
------------------1----|------------------------|
-----5--2---------2----|--2----2----------------|
-----------------------|--3----------------0----|
--0----------0---------|-------3----------------|
-----------------------|--3----------0----------|


v v
Q Q Q Q Q E E E E Q
--10----8----5----3----|--5-------------5--------||
--10---------6----6----|--5-------1--------------||
--10--------------4----|--5----2-----------2----*||
---0-------------------|--7---------------------*||
---0-------------------|--0----------0-----------||
---0---------5---------|-------------------------||


Am
v v
Q E E E E Q Q Q Q Q W
--0----3--5-----8-------|--10----8----5----3----|--5----------------||
------------------------|--10---------6----6----|--5----------------||
--2----2----------------|--10--------------4----|--5----------------||
--3----------------0----|--12-------------------|--7----------------||
-------3----------------|-----------------------|--0----------------||
--3----------0----------|-------------5---------|-------------------||


v pdf:
https://www.dropbox.com/s/p4pppjoy7l15iad/
Kdy%C5%BE%20p%C5%99%C3%ADjdou%20chv%C3%ADle%20posledn%C3%AD%20%28M.A.S.H.%29.pdf

Duration Legend
---------------
W - whole
H - half
Q - quarter
E - 8th
S - 16th
T - 32nd
X - 64th
. - note dotted
|-n-| - n-tuplets


Tablature Legend
----------------
L - tied note
x - dead note
g - grace note
(n) - ghost note
> - accentuded note
NH - natural harmonic
AH - artificial harmonic
TH - tapped harmonic
SH - semi harmonic
PH - pitch harmonic
h - hammer on
p - pull off
b - bend
br - bendRelease
pb - preBend
pbr - preBendRelease
brb - bendReleaseBend
\n/ - tremolo bar dip
\n - tremolo bar dive
-/n - tremolo bar Release up
/n\ - tremolo bar inverted dip
/n - tremolo bar return
-\n - tremolo bar Release down
S - shift slide
s - legato slide
/ - slide into from below or out of upwards
\ - slide into from above or out of downwards
~ - vibrato
W - wide vibrato
tr - trill
TP - tremolo picking
T - tapping
S - slap
P - pop
< - fade in
^ - brush up
v - brush down

 
»
Tvoje obľúbené položky
Tvoje obľúbené položky
»
Nové albumy interpreta
Nové albumy interpreta
CD Pacifik Story
CD Story

»
Najnovšie videá
Najnovšie videá

Ústřední melodie z filmu MASH

Pacifik - Tuláckej amulet

Pár pařmenů - trailer

Pacifik - Jenisej

Anita

M.A.S.H.
»
Najnavštevovanejšie piesne
Najnavštevovanejšie piesne
Velrybářská výprava - akordy a text

Džínová láska - akordy a text

Malý velký muž - Akordy a text

Když přijdou chvíle - akordy a text

Když příjdou chvíle poslední (M.A.S.H) - taby

Jenisej - akordy a text

Mississippi blues - akordy a text

Tak šel čas - akordy a text

Tennesee Waltz - akordy a text

Žízeň - akordy a text

viac




home | interpreti | register piesní | cd & dvd shop | pripomienky/nápady | kontakt | ochrana údajov | inzercia
Copyright © Pavol Bacigál, 2000-2017. Všetky práva vyhradené.
TOPlist