Pacifik

piesne (81)

  texty (78) / preklady (0)
  akordy (57) / taby (2)
  noty (0) / slideshow (0)

články (13)
fotogaléria
diskusia
videá
diskografia
v obchode
odkazy
koncerty
sťahuj



pridaj vlastný článok

Heuréka:
Trampové ze všech stran - Několik desek inspirovaných trampskou muzikou ke mně dorazilo a je to zajímavé s... - folktime.cz


Cigánski Diabli:
Dnes sa začína šestnásty ročník Lodenice - Dnes sa začína šestnásty ročník Lodenice Festival / do nedele, Piešťany, Sĺňav... - sme.sk


Arena:
Lodenica: Program hlavnej scény známy! - Bleskovky - Kultura


Čechomor:
Prvé mená v programe festivalu Lodenica 2009 - folk.sk


Pavel Bobek:
Zajtra začína Country Fest Rozmarín 2008 - 8. a 9. augusta v amfiteátri v Terchovej sa uskutoční 3. ročník festivalu Country Fes...


Backwards:
17. Folkový kvítek již tuto sobotu - folktime.cz


Bluesberry:
Malostranská beseda slaví... - folktime.cz


Adriena Bartošová:
Hudobný videokalendár na sobotu 12. apríla - Hudobný videokalendár na sobotu 12. apríla 12.apríla 1978 sa v škótskom Kirkcald...


Pacifik:
Pozvání od Vaška Maršálka znovu na trhu - Pozvání od Vaška Maršálka znovu na trhu Vašek Maršálek, bývalý člen a tak...


Asonance:
Průvodce festivaly na následující víkend - freemusic.cz


 

Pacifik

Fanúšikov: 5



A B C Č D E F G H CH I J K L Ľ M N O P Q R S Š T U V W X Y Z Ž



ako:
Pacifik - Tennessee waltz
Pacifik - Tennessee waltz

tlač

edituj
Rok vzniku: 1946
V originále: Tenessee waltz
Pesničku videlo 3349 návštevníkov.

Kvalita tabov : bez hodnotenia
Hodnotilo ľudí: 0 ohodnoť aj ty
Prispievateľ:

petr554
Autor hudby: Pee Wee King
                        Tennessee waltz                           

Takt 3/4

90 BPM
Acoustic gtr.


G G
H E. S E. S Q E. S E. S Q E. S
E||-----------------|-------------------|-------------3---5-|
B||-----------------|--0---3-L----------|--0---3-L----------|
G||-----------0---2-|--0----------0---2-|--0----------------|
D||-----------------|-------------------|-------------------|
A||-----------------|--------2----2-----|--------2----------|
E||-----------------|--3----------------|--3----------3---5-|


G/D D C G
Q Q Q E. S Q Q Q Q Q
--7----7----5----|--3---0-L----3----|--3--------------|
--8----8----7----|--1----------1----|--0----3----3----|
--7----7----7----|------------------|------------0----|
------------0----|--------2----2----|-----------------|
-----------------|--3---------------|-----------------|
-----------------|------------------|--3----2----0----|


Em Am D/F#
Q Q Q Q Q Q Q Q E. S
--0--------------|-----------------|------------------|
-------3----0----|-----------------|------------------|
--0---------0----|--2----L----L----|--2----2----0---2-|
-----------------|-------2----2----|-------0----0-----|
-------2----2----|--0--------------|------------------|
--0--------------|-----------------|--2---------------|


G G/D D
E. S Q E. S E. S Q E. S Q Q Q
-------------------|-------------3---5-|--7----7----5----|
--0---3-L----------|--0---3-3----------|--8----8----7----|
--0----------0---2-|--0----------------|--7----7----7----|
-------------------|-------------------|------------0----|
--------2----2-----|--------2----------|-----------------|
--3----------------|--3----------3---5-|-----------------|


C G D D7
E. S Q Q Q Q Q Q E. S Q
--3---0-L----3----|--3--------------|------------------|
--1----------1----|--0----3----0----|--3----L---1------|
------------------|------------0----|-------------2----|
--------2----2----|-----------------|--0---------------|
--3---------------|-----------------|------------------|
------------------|--3----2----0----|-------2-----2----|


G G B
Q Q Q Q Q Q Q Q E E
-----------------|-----------------|--7----L----7--7--|
-----------------|-----------------|--7----L----7-----|
--0----L----L----|--L----L----L----|------------------|
--0----L----L----|--L----L----L----|------------------|
-------2----2----|-------2----2----|-------9----9-----|
--3--------------|--3--------------|--7---------------|


B7 C G
Q Q E. S Q Q Q Q Q E. S
--------------7------|--3----3----0----|------------0---2-|
--10-----L--------10-|--1---------1----|--3----L----------|
---8-----L----8------|-----------------|--0----L----------|
---------------------|-------2----2----|------------------|
---------9----9------|--3--------------|------------------|
---7-----------------|-----------------|--3----2----0-----|


Em Am D/F#
Q Q Q Q E. S Q Q Q Q
--3--------------|--0----L----------|-----------------|
--0----3----3----|--1--------3-0----|-----------------|
------------0----|------------------|--2----2----2----|
-----------------|-------2-----2----|-------0----0----|
-------2----2----|--0---------------|-----------------|
--0--------------|------------------|--2--------------|


D/F# G G
Q Q E. S E. S Q E. S E. S Q E. S
------------------|-------------------|-------------3---5-|
------------------|--0---3-L----------|--0---3-L----------|
--2----2----0---2-|--0----------0---2-|--0----------------|
-------0----0-----|-------------------|-------------------|
------------------|--------2----2-----|--------2----------|
--2---------------|--3----------------|--3----------3---5-|


G/D D C G
Q Q Q E. S Q Q Q Q Q
--7----7----5----|--3---0-L----3----|--3--------------|
--8----8----7----|--1----------1----|--0----3----0----|
--7----7----7----|------------------|------------0----|
------------0----|--------2----2----|-----------------|
-----------------|--3---------------|-----------------|
-----------------|------------------|--3----2----0----|


D D7 G G
Q E. S Q Q Q Q H.
------------------|-----------------|---------------||
--3----L---1------|-----------------|--0------------||
-------------2----|--0----L----L----|--0------------||
--0---------------|--0----L----L----|---------------||
------------------|-------2----2----|---------------||
-------2-----2----|--3--------------|--3------------||


v pdf:
https://www.dropbox.com/s/mzksft58q31h8l7/Tennessee%20waltz%20%28rev2%29.pdf


Duration Legend
---------------
W - whole
H - half
Q - quarter
E - 8th
S - 16th
T - 32nd
X - 64th
. - note dotted
|-n-| - n-tuplets


Tablature Legend
----------------
L - tied note
x - dead note
g - grace note
(n) - ghost note
> - accentuded note
NH - natural harmonic
AH - artificial harmonic
TH - tapped harmonic
SH - semi harmonic
PH - pitch harmonic
h - hammer on
p - pull off
b - bend
br - bendRelease
pb - preBend
pbr - preBendRelease
brb - bendReleaseBend
\n/ - tremolo bar dip
\n - tremolo bar dive
-/n - tremolo bar Release up
/n\ - tremolo bar inverted dip
/n - tremolo bar return
-\n - tremolo bar Release down
S - shift slide
s - legato slide
/ - slide into from below or out of upwards
\ - slide into from above or out of downwards
~ - vibrato
W - wide vibrato
tr - trill
TP - tremolo picking
T - tapping
S - slap
P - pop
< - fade in
^ - brush up
v - brush down

 
»
Tvoje obľúbené položky
Tvoje obľúbené položky
»
Nové albumy interpreta
Nové albumy interpreta
6
CD Pacifik Story
CD Story

»
Najnovšie videá
Najnovšie videá

Tennessee Waltz - lyrics - singalong wit

Music City Hornline 2013 Tennessee Waltz

Tennessee Waltz Solo Ukulele Lesson Free

Tennessee Waltz performed by Siri Bones

Tennessee Waltz - Pee Wee King - Leonard

TENNESSEE WALTZ ,come on a my house.
»
Najnavštevovanejšie piesne
Najnavštevovanejšie piesne
Velrybářská výprava - akordy a text

Malý velký muž - Akordy a text

Džínová láska - akordy a text

Když přijdou chvíle - akordy a text

Jenisej - akordy a text

Mississippi blues - akordy a text

Tak šel čas - akordy a text

Tennesee Waltz - akordy a text

Žízeň - akordy a text

Až zatroubějí andělé - akordy a text

Když příjdou chvíle poslední (M.A.S.H) - taby

Zlatý údolí - akordy a text

Tulácké blues - akordy a text

Hej kočí - akordy a text

Bonanza - akordy a text

Karlínský nábřeží - text

Už koně mě vítaj - akordy a text

Tulácký amulet - akordy a text

Cikán - akordy a text

Čardáš - akordy a text

viac




home | interpreti | register piesní | cd & dvd shop | pripomienky/nápady | kontakt | ochrana údajov | inzercia

TOPlist