Inekafe

piesne (419)

  texty (279) / preklady (0)
  akordy (149) / taby (122)
  noty (0) / slideshow (3)

články (167)
fotogaléria
diskusia
videá
diskografia
v obchode
odkazy
koncerty
sťahuj



pridaj vlastný článok

Inekafe:
Iné Kafe a Buty sa stretnú na jedinečnom dvojkoncerte v Senci! - ...


Inekafe:
Iné Kafe zahrá v Pieštanoch na City feste! - ... - livemusic.sk


Abraxas:
Votvírák – s novou vlnou předprodeje připlouvá i Pavol Habera & Team - 8 Duben 2017 David Nguyen Žádné komentáře Novinky Votvírák – s novou vlnou... - rockandpop.cz


Inekafe:
Inekafe ve Frýdku-Místku i s Forusem! - Kapela Inekafe se vydala na Mestá Ďaleké Klubtour 2016. Během tohoto turné navšt... - rockmag.cz


Chinaski:
Hudobníci budú na TOPFEST-e skladať rockovú maturitu. V porote sú aj Zuzana
Smatanová, či Polemic!
- Published by MUSIC ZONE on 24. marca 2016 | Komentáre vypnuté na Hudobníci budú na TO... - music-zone.eu


Inekafe:
Inekafe predstavili prvého hosťa európskeho turné - Legendárna skupina Inekafe začne rok 2015 vo veľkom štýle. Po vydaní nového albumu... - Žijeme hudbou


Inekafe:
Inekafe pripravujú nový album Nevhodný typ - Slovenská pop-punková skupina Inekafe pripravuje svoju siedmu štúdiovku, ktorá pones...


Inekafe:
Z Iné Kafe odišiel basgitarista Peter Fóra - Zo slovenskej pop-punkovej skupiny Iné Kafe odišiel jej dlhoročný člen a basgitarist...


Tomáš Bezdeda:
Jadranka či Kazík. Slávik končí, pozrite sa, kto u Slovákov bodoval pred
rokmi
- Jadranka či Kazík. Slávik končí, pozrite sa, kto u Slovákov bodoval pred rokmi ... - sme.sk


Inekafe:
Po rapovej prichádza rocková vojna: Vratko z Ine Kafe sa pustil do Zoči Voči - Po rapovej prichádza rocková vojna: Vratko z Ine Kafe sa pustil do Zoči Voči ... - aktuality.sk


 

Inekafe

Fanúšikov: 147



A B C Č D E F G H CH I J K L Ľ M N O P Q R S Š T U V W X Y Z Ž



ako:
Inekafe - Opäť na streche
Inekafe - Opäť na streche

tlač

edituj
Pesničku videlo 4247 návštevníkov.

Kvalita tabov : bez hodnotenia
Hodnotilo ľudí: 0 ohodnoť aj ty
Prispievateľ:

AFBI
  *** Autor textu: Vratko *** Autor hudby: Vratko
Opäť na streche

live Právo na šťastie

Verse 1
2x
e -------------------------------------------------
H -------------------------------------------------
G --7--10-5----------------------------------------
D --7--10-5-5-7------------------------------------
A --5--8--3-5-7------------------------------------
E ----------3-5------------------------------------

e -------------------------------------------------
H -------------------------------------------------
G -------------------------------------------------
D -5/10--5/7---------------------------------------
A -3/8---3/5-5/7-----------------------------------
E -----------3/5-----------------------------------

pre chorus:
e -------------------------------------------------
H -------------------------------------------------
G --------4----------------------------------------
D ---4444-4--5--7----------------------------------
A ---4444-2--5--7----------------------------------
E ---2222----3--5----------------------------------

chorus:
e -------------------------------------------------
H -------------------------------------------------
G -------7-----------------------------------------
D ---5-5-7-7---3x--5-5-7---------------------------
A ---5-5-5-7-------5-5-7---------------------------
E ---7-3---5-------7-3-5---------------------------




verse 2
2x
e -------------------------------------------------
H -------------------------------------------------
G --7--10-5----------------------------------------
D --7--10-5-5-7------------------------------------
A --5--8--3-5-7------------------------------------
E ----------3-5------------------------------------

e -------------------------------------------------
H -------------------------------------------------
G -------------------------------------------------
D -5/10--5/7---------------------------------------
A -3/8---3/5-5/7-----------------------------------
E -----------3/5-----------------------------------


pre chorus:
e --------------------------------------------------
H --------------------------------------------------
G --------4-----------------------------------------
D ---4444-4--5--7-----------------------------------
A ---4444-2--5--7-----------------------------------
E ---2222----3--5-----------------------------------


chorus:
e ---------------------------------------------------
H ---------------------------------------------------
G -------7-------------------------------------------
D ---5-5-7-7-----------------------------------------
A ---5-5-5-7-----------------------------------------
E ---7-3---5-----------------------------------------




interlude

e ---------------------------------------------------
H ---------------------------------------------------
G -------7-------------------------------------------
D ---5-5-7-7-----------------------------------------
A ---5-5-5-7-----------------------------------------
E ---7-3---5-----------------------------------------



Verse 3:
e ---------------------------------------------------
H ---------------------------------------------------
G ---------------------------------------------------
D ---5-7---------------------------------------------
A ---5-7---------------------------------------------
E ---3-5---------------------------------------------


chorus:
e ---------------------------------------------------
H ---------------------------------------------------
G -------9-------------------------------------------
D --11-7-9-9---3x--11-7-9----------------------------
A --11-7-7-9-------11-7-9----------------------------
E --9- 5---7-------9--5-7----------------------------

chorus1
e ---------------------------------------------------
H ---------------------------------------------------
G -------9-------------------------------------------
D --11-7-9-9---4x------------------------------------
A --11-7-7-9------------------------------------------
E --9- 5---7-----------------------------------------


outro

e ---------------------------------------------------
H ---------------------------------------------------
G ---------------------------------------------------
D --999- 7--5----------------------------------------
A --999- 7--5----------------------------------------
E --777- 5--3----------------------------------------





Verse 1 2x
pre chorus 1x
chorus
verse 2 2x
pre chorus
chorus
interlude 2x
Verse 3
chorus
chorus1 4x
outro


live 100 percent

AFBI

 
»
Tvoje obľúbené položky
Tvoje obľúbené položky
»
Nové albumy interpreta
Nové albumy interpreta
6
DVD Inekafe Live in praha 2009
DVD Live in praha
2009
2xCD Ine Kafe 1995-2010 naj 15 rockov
2xCD 1995-2010 naj 15
rockov

»
Najnovšie videá
Najnovšie videá

In Kafe - Op na streche

INEKAFE - Op na streche Live in Praha

In Kafe - Op na streche

Ine Kafe Live In Praha opet na streche H

Inekafe - Op na streche cover

Inekafe - Op na streche (live)
»
Najnavštevovanejšie piesne
Najnavštevovanejšie piesne
Mojich najlepších 15 rockov - akordy a text

Záverečná - akordy a text

Ráno - akordy a text

Špinavé objatie - akordy a text

Spomienky na budúcnosť - akordy a text

Ráno - 100% - akordy

Ani minútu - akordy a text

Nezáujem - akordy a text

Mojich najlepších 15 ro(c)kov - akordy a text

30.február - akordy a text

Ružová záhrada - akordy a text

Spomienky na budúcnosť - oprava - akordy a text

Právo na šťastie - akordy a text

Čiernobiela - akordy a text

Pár sráčov bohatých - akordy a text

Náš svet je pestrý - akordy a text

Čas beží (unplugged Mlynská dolina) - akordy a text

Dejavu - akordy a text

Pomozte mi so mnou - akordy a text

090x - akordy a text

viac




home | interpreti | register piesní | cd & dvd shop | pripomienky/nápady | kontakt | ochrana údajov | inzercia

TOPlist