Šanov 1

piesne (61)

  texty (59) / preklady (1)
  akordy (1) / taby (1)
  noty (0) / slideshow (0)

články (3)
fotogaléria
diskusia
videá
diskografia
v obchode
odkazy
koncerty
sťahuj



pridaj vlastný článok

Šanov 1:
Po pěti letech vychází nové album severočeské legendy ŠANOV 1. - Šanov si za těch několik let od předchozí desky prošel pauzou i změnou sestavy, ... - PHR


Šanov 1:
Punkeři Šanov 1 pověsili hudbu na hřebík. Zase - musicserver.cz


Šanov 1:
Šanov 1 - Delikatesy - musiczone.cz


Šanov 1:
Šanov 1 právě vydal svoje Delikatesy - Po delším čekání právě vyšlo nové album kultovních Šanov 1 – Delikatesy. Po ...


Čertůf Punk:
Čertůf Punk, Do Řady! a Šanov 1 vydali společné CD! - Hned tři kapely, které lze směle označit za legendy českého punku se objevily na sp...


Šanov 1:
Česká punková legenda Šanov 1 v košickom Colloseu... - box.sk


Šanov 1:
Punk Aid CZ - sobota (4.9.2004) - musicphoto.cz


 

Šanov 1

Fanúšikov: 2



A B C Č D E F G H CH I J K L Ľ M N O P Q R S Š T U V W X Y Z Ž



ako:
Šanov 1 - Protoze nas to bavi!
Šanov 1 - Protoze nas to bavi!

tlač

edituj
Rok vzniku: 2011
Pesničku videlo 2286 návštevníkov.

Kvalita tabov : bez hodnotenia
Hodnotilo ľudí: 0 ohodnoť aj ty
Prispievateľ:

romhead
  *** Autor textu: Sanov 1 *** Autor hudby: 8-10----8-8-8-10-8
Intro (Solo)
H---------------------------8-10----8-8-8-10-8-
G--7-7-9-10-9-7-9-----10-10------10------------
D-----------------7-7--------------------------

Sloha
G--7-7-7-7---------10-10-10-10-12-12-12-12-
D--7-7-7-7-7-7-7-7-10-10-10-10-12-12-12-12-
A--5-5-5-5-7-7-7-7-8--8--8--8--10-10-10-10-
E----------5-5-5-5-------------------------

Refren
G--7-----7-----10-------10----7---
D--7-7-7-7-7-7-10-10-10-10-10-7-7-
A--5-7-7-5-7-7-8--10-10-8--10-5-7-
E----5-5---5-5----8--8-----8----5-

Medzihra
A--5-5-----6--6-6-6-6--6-|-----------
E------8-8---------------|-5--5-5-5-5

 
»
Tvoje obľúbené položky
Tvoje obľúbené položky
»
Nové albumy interpreta
Nové albumy interpreta
6
CD Šanov Stejný krysy jako kdysi
CD Stejnþ krysy
jako kdysi
CD Šanov Acid mouse
CD Acid mouse

»
Najnovšie videá
Najnovšie videá

3v1 - ertf Punk,Do ady! ,anov 1 (Ful

anov 1 - Delikatesy [Full album]

Sanov 1 vlastenec.wmv

anov 1 - O ns

ANOV 1 - O ns

anov 1 - Dokonal krva
»
Najnavštevovanejšie piesne
Najnavštevovanejšie piesne



home | interpreti | register piesní | cd & dvd shop | pripomienky/nápady | kontakt | ochrana údajov | inzercia

TOPlist