Chinaski

piesne (306)

  texty (262) / preklady (1)
  akordy (190) / taby (25)
  noty (0) / slideshow (1)

články (398)
fotogaléria
diskusia
videá
diskografia
v obchode
odkazy
koncerty
sťahuj



pridaj vlastný článok

Chinaski:
Singel z nového albumu a jesenné turné - Jedna z najúspešnejších českých skupín, Chinaski, vydáva na jar nový album. Nahrávku, kto... - Brain Zone Promotion


Chinaski:
Chinaski přestanou na rok koncertovat. Připravují nové album - AKTUALIZOVÁNO 3. 10. 2016 Kapela Chinaski Kapela Chinaski | Foto: ČTK Chinaski si dají...


Chinaski:
ŽEBŘÍKÁNÍ: Chinaski hráli i v bordelu, Tomáš Klus se chystá zpět na pódia - Vydáno 14.03.2016 | autor: redakce Facebook122 Twitter0 Google+0 Ani letos vás nemůže... - ireport.cz


Chinaski:
Hudobníci budú na TOPFEST-e skladať rockovú maturitu. V porote sú aj Zuzana
Smatanová, či Polemic!
- Published by MUSIC ZONE on 24. marca 2016 | Komentáre vypnuté na Hudobníci budú na TOPFES... - music-zone.eu


Chinaski:
Vlasta Redl nám skvěle vařil a my hráli, přiznal Malátný - 24. září 2015 18:47 Neuvěřitelné spojení se stalo skutečností. Legendární hudebník Vlas... - idnes.cz


Chinaski:
Chinaski hráli akusticky. Vznikl záznam a vyjde album - Skupina Chinaski odehrála v pondělí v pražské Retro Music Hall akustický koncert v rámc... - novinky.cz


Buty:
Nejznámější šumavský festival proběhne již v sobotu - Festival Šumava Rocks se letos přehoupne do dvaadvacátého ročníku a návštěvníky přivítá n... - musicserver.cz


Chinaski:
Vystúpia s No Name v Pezinku - V pezinskom amfiteátri sa 27. augusta uskutoční dvojkoncert českej kapely Chinaski a slov...


Chinaski:
Chinaski zverejnili video k piesni Každý ráno - Česká kapela Chinaski zverejnila videoklip ku skladbe Každý ráno. Členovia zoskupenia na ...


Chinaski:
Zahrajte si před Chinaski. Kapela shání čtrnáct předkapel na turné - /**/ více tiscali.cz ... - IREPORT


 

Chinaski

Fanúšikov: 97



A B C Č D E F G H CH I J K L Ľ M N O P Q R S Š T U V W X Y Z Ž



ako:
Chinaski - Vedoucí + Taby na basu
Chinaski - Vedoucí + Taby na basu

tlač

edituj
Rok vzniku: 2006
V originále: https://www.youtube.com/watch?v=LApecSLXxEk
Pesničku videlo 3478 návštevníkov.

Kvalita tabov : bez hodnotenia
Hodnotilo ľudí: 0 ohodnoť aj ty
Prispievateľ:

kema
  *** Autor textu: Chinaski *** Autor hudby: Chinaski
 Intro 2x 
G|--11-9------------|--11-9------------------------|
D|-------9-11-------|-------11-9----9-11-----------|
A|------------12-9--|------------12------12-9-7-9--|
E|------------------|------------------------------|

Sloka Riff
G|-----------------------|
D|------------2-2---2-4--|
A|-------2-4------4------|
E|--2--2-----------------|

Refrém
G|------------|------------|------------|------------|
D|------------|------------|------------|------------|
A|--2-2--2-2--|------------|------------|------------|
E|------------|--2-2--2-2--|--0-0--0-0--|--2-2--2-2--|

Solo (1:03)
G|---------------------|
D|------------------9--|
A|----7-9--11-11-11----|
E|--2------------------|

G|--14-14-14-11----11---------------------------------------|
D|--------------14-----14-11-9--11-9-7--9-7-6--7-6-4--6-4-2-|
A|----------------------------------------------------------|
E|----------------------------------------------------------|

Mezihra 4x (1:46)
G|---------------|
D|------------2--|
A|-------2-4-----|
E|--2--2---------|

Mezihra 4x (1:57)
G|-----------------------|
D|------------2-2---2-4--|
A|-------2-4------4------|
E|--2--2-----------------|

Refrém Break (2:53)
G|------------|------------|------------|--------------|
D|------------|------------|------------|--------------|
A|--2-2--2-2--|------------|------------|--------------|
E|------------|--2-2--2-2--|--0-0--0-0--|--2-2--2-1-0--|

Závěr (3:17)
G|------------------|
D|------------------|
A|--9-7-------------|
E|------7-9--5---2--|

 
»
Tvoje obľúbené položky
Tvoje obľúbené položky
»
Nové albumy interpreta
Nové albumy interpreta
CD Chinaski Rockfield
CD Rockfield
2xCD Chinaski 20 let v siti
2xCD 20 let v siti
DSL Chinaski 26 nejvetsich hrichu /hz slidepack
DSL 26 nejvetsich
hrichu /hz
slidepack
2xCD Chinaski Neni na co cekat/dvd
2xCD Neni na co
cekat/dvd
CD Chinaski Neni na co cekat
CD Neni na co cekat
7xCD Chinaski Box
7xCD Box

»
Najnovšie videá
Najnovšie videá

JAK NA TO

Chinaski - Hlavolam

Chinaski - Tabacek

Chinaski - Dobrak od kosti

Chinaski - Vrchlabi

Chinaski - Ententyky
»
Najnavštevovanejšie piesne
Najnavštevovanejšie piesne
Každý ráno - akordy a text

Vinaři (PB) - akordy a text

Slovenský klín - akordy

Hlavolam - akordy a text

Vinaři - akordy a text

Stížnost - akordy a text

1.signální - akordy

Tabáček - akordy a text

1.signální - akordy a text

Slovenský klín - akordy

viac




home | interpreti | register piesní | cd & dvd shop | pripomienky/nápady | kontakt | ochrana údajov | inzercia
Copyright © Pavol Bacigál, 2000-2017. Všetky práva vyhradené.
TOPlist