Vašo Patejdl

piesne (84)

  texty (74) / preklady (0)
  akordy (32) / taby (2)
  noty (0) / slideshow (0)

články (110)
fotogaléria
diskusia
videá
diskografia
v obchode
odkazy
koncerty
sťahuj



pridaj vlastný článok

Vašo Patejdl:
Spevák z kapely Lucie sa postavil pred novinárov ožratý: Vrchol drzosti prišiel
nakoniec!
- Spevák z kapely Lucie sa postavil pred novinárov ožratý: Vrchol drzosti prišiel nakoniec!... - cas.sk


Martin Chodúr:
Bratislavská lýra oslávi 50. Pozrite si tváre, ktoré jej kraľovali - BRATISLAVA - V Bratislave sa 9. júna 1966 začal v Športovej hale na Pasienkoch Medzinár... - atlas.sk


Ľubo Belák:
Mainstream socializmu: Vďaka Bratislavskej lýre nás spoznal aj Západ - BRATISLAVA – Najikonickejšia súťaž populárnej hudby v Československu oslavuje 50. výročie... - atlas.sk


Vašo Patejdl:
Vydavatelství Opus připomíná v reedici první tři sólová alba Vaša Patejdla i s
bonusy
- Vydáno: 26.09.2015 16:24 v sekci Novinky - Milan Menčík SDÍLET: Slovenské vydav... - musicserver.cz


Vašo Patejdl:
Vašo Patejdl sa oženil - Slovenský hudobník Vašo Patejdl sa po druhý raz oženil. Manželkou 60-ročného člena kapely...


Vašo Patejdl:
Elánista Vašo Patejdl dnes vstúpil do radov šesťdesiatnikov - ... - spravy.pozri.sk


Monika Bagárová:
Karel Gott vydá 19. septembra album S pomocí přátel - Český spevák Karel Gott vydá 19. septembra album S pomocí přátel. Novinka bude obsahovať ...


Elán:
Elánisti plánovali s Ďurdinom - Elánisti plánovali s Ďurdinom († 40) turné: Prečo neprišli na pohreb kamaráta?!" style="d... - cas.sk


Elán:
Elánisti podpísali zmluvu na nový album - Slovenská kapela Elán podpísala s hudobným vydavateľstvom Warner Music zmluvu na nový alb...


Vašo Patejdl:
Vašo Patejdl: Voliť som bol, nemožnosť slobodne voliť som zažil a tak možnosť
výberu, aj keď trochu obmedzenú, beriem ako základ demokracie
- Terajšie politické dianie okolo seba nechtiac musím pozorovať. Je toho totiž stále straš... - musicscaper.sk


 

Vašo Patejdl

Fanúšikov: 11



A B C Č D E F G H CH I J K L Ľ M N O P Q R S Š T U V W X Y Z Ž



ako:
Vašo Patejdl - Voňavky dievčat- basové taby
Vašo Patejdl - Voňavky dievčat- basové taby

tlač

edituj
Poznámka: - basové taby

Pesničku videlo 4894 návštevníkov.

Kvalita tabov : bez hodnotenia
Hodnotilo ľudí: 0 ohodnoť aj ty
Prispievateľ:

Hudino
            h-hammer on  

p-pull of


Chorus 1

G|-----------7---7-------------------
D|---5---5-----------7---7---7---7---
A|---------5---5---------------------
E|-3---3-----------5---5---5---5-----


---5---5---7---7-----------7---7---
-------------------7---7-----------
-3---3---5---5-----------5---5-----
-----------------5---5-------------


-----------7---7-------------------
---5---5-----------7---7---7---7---
---------5---5---------------------
-3---3-----------5---5---5---5-----


---5---5---7---7---7---7---
---------------------------
-3---3---5---5---5---5-----
---------------------------



Verse

G|-----------------------
D|---7-----7-------------
A|-5---5-8-----7---8p7---
E|-----------5---5-------



Pre-chorus

G|-----------------------------------------------
D|-----------------------------------------------
A|---8---7h8---10---10p9---8---7h8---10---10p9---
E|-6---6-----8----8------6---6-----8----8--------


-------------------------7----------7-------
----------------------------5h7-------5h7---
---8---7h8---10---9h10-5--5-----5-5---------
-6---6-----8----8---------------------------



Solo

G|-----------------------------------------------
D|---9------9--------------9------9--------------
A|-7---7-10-----9---10p9-7---7-10-----9---10p9---
E|------------7---7-----------------7---7--------


---------------------------------------------------------
---------------------------------------------------------
---10---9h10----12----12p11---10---9h10----12----12p11---
-8----8------10----10-------8----8------10----10---------


-------------------------------------------------------
---11------11----------------11------11----------------
-9----9-12------11---12p11-9----9-12------11---12p11---
--------------9----9--------------------9----9---------


---------------------------------------------------------------
---------------------------------------------------------------
----12----11h12----14----14p13----12----11h12----14----14p13---
-10----10-------12----12-------10----10-------12----12---------


---------------------------------11------------11--------
--------------------------------------9h11--------9h11---
----12----11h12----14----13h14-9----9------9-9-----------
-10----10-------12----12---------------------------------



Chorus 2

G|-----------11---11-----------------------
D|---9---9-------------11---11---11---11---
A|---------7----7--------------------------
E|-7---7-------------9----9----9----9------


---9---9---11---11-------------11---11---
---------------------11---11-------------
-7---7---9----9--------------9----9------
-------------------9----9----------------


-----------11---11-----------------------
---9---9-------------11---11---11---11---
---------7----7--------------------------
-7---7-------------9----9----9----9------


---9---9---11---11---11---11---
-------------------------------
-7---7---9----9----9----9------
-------------------------------



Chorus 1
Verse
Pre-chorus
Chorus 1
Solo
Chorus2 (2x)





 
»
Tvoje obľúbené položky
Tvoje obľúbené položky
»
Nové albumy interpreta
Nové albumy interpreta
3xCD Patejdl Vaso To nejlepsi 1981-2015
3xCD To nejlepsi
1981-2015
3xCD Patejdl Vaso Opus 1986 – 1990 (povodne albumy s bonusmi)
3xCD Opus 1986 – 1990
(povodne albumy
s bonusmi)

»
Najnovšie videá
Najnovšie videá

Vaso Patejdl - Vonavky dievcat

Vašo Patejdl - Voňavky dievčat /Sme tu!

Megakoncert radia Čas 2013 Ostrava, Vašo

Akuna show 2015 - Vašo Patejdl - Voňavk

Vašo Patejdl-Voňavky dievčat- verzia sku

Vašo Patejdl - Voňavky Dievčat
»
Najnavštevovanejšie piesne
Najnavštevovanejšie piesne
Nepriznaná - akordy a text

Ak nie si moja - akordy

Zlodej slnečníc - akordy a text

Ak nie si moja (jednoduse) - akordy a text

Kamarátka nádej - akordy a text

Ak nie si moja - akordy

Ak nie si moja - akordy a text

Ak nie si moja - Akordy a text

Poďme spolu lietať - akordy a text

Ako bola objavená Amerika - akordy a text

viac




home | interpreti | register piesní | cd & dvd shop | pripomienky/nápady | kontakt | ochrana údajov | inzercia
Copyright © Pavol Bacigál, 2000-2017. Všetky práva vyhradené.
TOPlist