Vašo Patejdl

piesne (85)

  texty (75) / preklady (0)
  akordy (32) / taby (2)
  noty (0) / slideshow (0)

články (110)
fotogaléria
diskusia
videá
diskografia
v obchode
odkazy
koncerty
sťahuj



pridaj vlastný článok

Ján Baláž:
Elán v lete odohrá posledné open air koncerty, 50. výročie oslávi už len v
halách
- včera o 09:30 | redakcia Historicky najúspešnejšia slovenská skupina Elán v stredu na ... - zoznam.sk


Ján Baláž:
Obrovský šok! Jožo Ráž opúšťa Elán! - pred 14 hodinami Topstar.sk Showbiznis Obrovský šok! Jožo Ráž opúšťa Elán! OSTATNÍ ČÍ...


Vašo Patejdl:
Spevák z kapely Lucie sa postavil pred novinárov ožratý: Vrchol drzosti prišiel
nakoniec!
- Spevák z kapely Lucie sa postavil pred novinárov ožratý: Vrchol drzosti prišiel nakoniec!... - cas.sk


Martin Chodúr:
Bratislavská lýra oslávi 50. Pozrite si tváre, ktoré jej kraľovali - BRATISLAVA - V Bratislave sa 9. júna 1966 začal v Športovej hale na Pasienkoch Medzinár... - atlas.sk


Ľubo Belák:
Mainstream socializmu: Vďaka Bratislavskej lýre nás spoznal aj Západ - BRATISLAVA – Najikonickejšia súťaž populárnej hudby v Československu oslavuje 50. výročie... - atlas.sk


Vašo Patejdl:
Vydavatelství Opus připomíná v reedici první tři sólová alba Vaša Patejdla i s
bonusy
- Vydáno: 26.09.2015 16:24 v sekci Novinky - Milan Menčík SDÍLET: Slovenské vydav... - musicserver.cz


Vašo Patejdl:
Vašo Patejdl sa oženil - Slovenský hudobník Vašo Patejdl sa po druhý raz oženil. Manželkou 60-ročného člena kapely...


Vašo Patejdl:
Elánista Vašo Patejdl dnes vstúpil do radov šesťdesiatnikov - ... - spravy.pozri.sk


Monika Bagárová:
Karel Gott vydá 19. septembra album S pomocí přátel - Český spevák Karel Gott vydá 19. septembra album S pomocí přátel. Novinka bude obsahovať ...


Elán:
Elánisti plánovali s Ďurdinom - Elánisti plánovali s Ďurdinom († 40) turné: Prečo neprišli na pohreb kamaráta?!" style="d... - cas.sk


 

Vašo Patejdl

Fanúšikov: 11



A B C Č D E F G H CH I J K L Ľ M N O P Q R S Š T U V W X Y Z Ž



ako:
Vašo Patejdl - Mal som rád beatnikov - basové taby
Vašo Patejdl - Mal som rád beatnikov - basové taby

tlač

edituj
Pesničku videlo 3565 návštevníkov.

Kvalita tabov : bez hodnotenia
Hodnotilo ľudí: 0 ohodnoť aj ty
Prispievateľ:

Hudino
          /-slide down

h-hammer on

p-pull of


Intro
G|-----------------------------
D|-5-5h7p5---5h7p5-------------
A|-----------------7-5-----5---
E|---------------------7-5-----


Verse
G|-------------------------------------------------
D|---5--------5-------------5--------5---5-5h7p5---
A|----------------5-5h7p5--------------------------
E|-3---3--0-3---3---------3---3--0-3---3-----------



Pre-chorus
G|-----------------------------------------------------
D|-2--2--2h4p2-0--------0---2--2--2h4p2-0--------0-----
A|---------------2--2-2---2---------------2--2-2---2---
E|-----------------------------------------------------

-------------------------------------
-----------------------------4-------
-3--3--2--2--0--0-0--5-5-5-5---0-0---
-------------------------------------



Chorus
G|--------------------------------5-------------------
D|-----4---0-2-4----4-4h5p4-----5---5-----5-5h7p5-0---
A|-2-2---2-------2---------5-3--------0-3-------------
E|----------------------------------------------------

-------------------------------------0-----0-----
-----4---0-2-4----4-4h5p4----------2-----2-------
-2-2---2-------2---------5-2-0-0-------0-----2---
-------------------------------------------------


Interlude
G|-------------------------------------------------
D|---------------------------------------5(ring)---
A|----------5-7--7-7--7-0-3--3-3--3-0-5------------
E|-3--3-3--3---------------------------------------


Intro 2
G|----------------------------------------
D|----5-5h7p5-----------------------------
A|--------------5-5h7p5--5h7p5--------5---
E| ----------------------------7-5-3/5----



Outro
G|-------------------
D|-------------------
A|-------------------
E|-3-3---3-3---3-3---



Intro
Verse 2x
Pre-chorus
Chorus
Interlude
Intro 2
Verse 2x
Pre-chorus
Chorus
Interlude
Outro

 
»
Tvoje obľúbené položky
Tvoje obľúbené položky
»
Nové albumy interpreta
Nové albumy interpreta
3xCD Patejdl Vaso To nejlepsi 1981-2015
3xCD To nejlepsi
1981-2015
3xCD DGPK Patejdl Vaso Opus 1986-1990
3xCD DGPK Opus 1986-1990

»
Najnovšie videá
Najnovšie videá

Vašo Patejdl - Mal som rád beatnikov /Sm

Vašo Patejdl - Mal som rád beatnikov

Vašo Patejdl - Púpavová noc, Mal som rád

Vaso Patejdl - Kamaratka nadej, Mal som

Mal som rad beatnikov

Legendy popu - Robo Patejdl
»
Najnavštevovanejšie piesne
Najnavštevovanejšie piesne
Nepriznaná - akordy a text

Ak nie si moja - akordy

Zlodej slnečníc - akordy a text

Ak nie si moja (jednoduse) - akordy a text

Kamarátka nádej - akordy a text

Ak nie si moja - akordy

Ak nie si moja - akordy a text

Ak nie si moja - Akordy a text

Poďme spolu lietať - akordy a text

Ako bola objavená Amerika - akordy a text

viac




home | interpreti | register piesní | cd & dvd shop | pripomienky/nápady | kontakt | ochrana údajov | inzercia
Copyright © Pavol Bacigál, 2000-2017. Všetky práva vyhradené.
TOPlist