Šht

piesne (29)

  texty (28) / preklady (0)
  akordy (6) / taby (1)
  noty (0) / slideshow (0)

články (5)
fotogaléria
diskusia
videá
diskografia
v obchode
odkazy
koncerty
sťahuj



pridaj vlastný článok

Šht:
Muzikanti z ŠHT: Takýto klip tu ešte nebol, ktoré žiarske ulice v ňom spoznáte?
FOTO + VIDEO
- ... - dnes24.sk


Šht:
Niektorí sa chceli pridať k protestu, nevšimli si, že kapela ŠHT iba natáča
videoklip Čítajte viac:
http://nasziar.sme.sk/c/8017655/niektori-sa-chceli-pridat-k-protestu-nevsimli-si
-ze-kapela-sht-iba-nataca-videoklip.html#ixzz4OB4j1meG
- ... - sme.sk


Šht:
ŠHT je najviac koncertujúca kapela v Žiari - ... - sme.sk


Šht:
História kapely ŠHT - ŠHT punk-rock Žiar nad Hronom, SK Websites bandzon e.cz/sht www.myspace.com /...


Cenzúra:
Punkáči deťom, Brezová pod Bradlom - musiczone.cz


 

Šht

Fanúšikov: 1



A B C Č D E F G H CH I J K L Ľ M N O P Q R S Š T U V W X Y Z Ž



ako:
Šht - Ľudia na zem
Šht - Ľudia na zem

tlač

edituj
Rok vzniku: 2011
Pesničku videlo 1856 návštevníkov.

Kvalita tabov : bez hodnotenia
Hodnotilo ľudí: 0 ohodnoť aj ty
Prispievateľ:

romhead
  *** Autor textu: ŠHT *** Autor hudby: ŠHT
Intro
A-------------------------8-8-7-5
E--5-5~-5-8-7-5-7-8-8~--8--------

D--7-7x-10~-9-7------------
A--7-7x---------10-7-8-10-8
E--5-5x--------------------

D----------------------------10----10-10
A--7-7-7-7-7-7-7-10-10-10-10-8-----8--8
E--5-5-5-5-5-5-5-8--8--8--8-------------

Sloha
G-----------------------10-10-10-10---------
D-----------------------10-10-10-10---------
A--7-7-7-7--10-10-10-10-8--8--8--8--7-7-7-7-
E--5-5-5-5--8--8--8--8--------------5-5-5-5-

Tak alebo tak
D--------------10-10x-10x-10x-12-12x-12x-12x-9-9x-9x-9x-
A--7-7x-7x-7x--8--8x--8x--8x--10-10x-10x-10x-7-7x-7x-7x-
E--5-5x-5x-5x-------------------------------------------

D--10-10x-10x-10x-10x-10x-10x-10x-12-12x-12x-12x-12x-12x-12x-12x-12x
A--8--8x--8x--8x--8x--8x--8x--8x--10-10x-10x-10x-10x-10x-10x-10x-10x

Čakám kým sa ľudia na zem vrátia
D--10-10x-10x-10x----------------------------------
A--8--8x--8x--8x--5-5x-5x-5x-7-7x-7x-7x-7x-7x-7x-7x
E-----------------3-3x-3x-3x-5-5x-5x-5x-5x-5x-5x-5x


 
»
Tvoje obľúbené položky
Tvoje obľúbené položky
»
Nové albumy interpreta
Nové albumy interpreta
CD Shtetl Band Amsterdam Roots and shoots
CD Roots and shoots
CD Shtar Academy Shtar academy (fra)
CD Shtar academy
(fra)
CD Shtraukh Maksim The overcoat: by nikolai gogol
CD The overcoat: by
nikolai gogol
CD Shtetl Band Amsterdam Klezmer village
CD Klezmer village
VINYL Shtorn Dave Intrigue [vinyl]
VINYL Intrigue [vinyl]
VINYL Shtorn Dave Intrigue [vinyl]
VINYL Intrigue [vinyl]

»
Najnovšie videá
Najnovšie videá

ŠHT-Ľudia na zem

ŠHT - K svetlu v diaľ (album Niečo sa mu

Krásna Zem a ľudia

ŠHT - Európa (klip 2007)

Zem - Heavy Duty Burdens Tour

ŠHT - Európa (album Niečo sa musí stať..
»
Najnavštevovanejšie piesne
Najnavštevovanejšie piesne
Otec, mama - akordy a text

Ľudia na zem - taby

Hosanna - akordy a text

ZAĽÚBENÝ - text

360 dni - akordy a text

Kohútik - akordy a text

Nenávisť - akordy a text

Paraziti - text

Tibor - text

K svetlu v diaľ - text

viac




home | interpreti | register piesní | cd & dvd shop | pripomienky/nápady | kontakt | ochrana údajov | inzercia
Copyright © Pavol Bacigál, 2000-2017. Všetky práva vyhradené.
TOPlist