Jablkoň

piesne (57)

  texty (47) / preklady (0)
  akordy (42) / taby (5)
  noty (0) / slideshow (0)

články (70)
fotogaléria
diskusia
videá
diskografia
v obchode
odkazy
koncerty
sťahuj



pridaj vlastný článok

Bonsai:
Hradecký slunovrat 2016 ohlásil velmi atraktivní program (Belmondo)
PDF Tisk Email
- PR Festival konající se v nádherném zámeckém prostředí zveřejnil program hlavních sc... - folktime.cz


Jablkoň:
Zemřel zakládající člen Jablkoně Ingo Bellmann - V pátek 13.7.t.r. náhle zemřel zakládající člen skupiny Jablkoň, Ingo Bellmann. Je autor...


Jablkoň:
Jablkoň, Obří broskev nebo Poletíme? natočili album pro děti - ireport.cz


Jablkoň:
Dva klipy pro děti od 3B - Dva klipy pro děti od 3B Hned dva klipy připravili umělci pro projekt 3B a aktuální albu...


Ivo Cicvárek:
3B – Bongo BonBoniéra - 3B – Bongo BonBoniéra Kat. č.: MAM480-2, © + (P) 2010 Indies Scope DPC: MP3 149,- K...


Čankišou:
Speciální kompilace Ztracený ve světě: A Tribute To Oldřich Janota právě vychází - musiczone.cz


Jablkoň:
V Bratislave vystúpi 19. novembra skupina Jablkoň - sme.sk - hudba


Pavel Bobek:
Zajtra začína Country Fest Rozmarín 2008 - 8. a 9. augusta v amfiteátri v Terchovej sa uskutoční 3. ročník festivalu Country Fest Roz...


Beat:
Sezónu letních festivalů odstartovali v Brandýse i v Praze - novinky.cz


Bratři Orffové:
Festival Mezi Ploty odstartuje v Dobřanech - muzikus.cz


 

Jablkoň

Fanúšikov: 1



A B C Č D E F G H CH I J K L Ľ M N O P Q R S Š T U V W X Y Z Ž



ako:
Jablkoň - Ráno
Jablkoň - Ráno

tlač

edituj
Pesničku videlo 2570 návštevníkov.

Kvalita tabov : bez hodnotenia
Hodnotilo ľudí: 0 ohodnoť aj ty
Prispievateľ:

tomfor
     D                       A                       Hm    A     G     

E||--2--2h-3p-2--5--3--2--|--0--0h-2p-0--3--2--0--|-----2--0----------|
B||--3--------------------|--2--------------------|--3--------3--0----|
G||--2--------------------|--2--------------------|-------------------|
D||--0--------------------|-----------------------|-------------------|
A||-----------------------|--0--------------------|--2-----0----------|
E||-----------------------|-----------------------|--------------3----|


D A Hm A D

--2--2h-3p-2--5--3--2--|--0--0h-2p-0--3--2--0--|-----2--0----------||
--3--------------------|--2--------------------|--3--------2--3----||
--2--------------------|--2--------------------|--------------2----||
--0--------------------|-----------------------|--------------0----||
-----------------------|--0--------------------|--2-----0----------||
-----------------------|-----------------------|-------------------||

 
»
Tvoje obľúbené položky
Tvoje obľúbené položky
»
Nové albumy interpreta
Nové albumy interpreta
CD Jablkon Pulpes
CD Pulpes
CD Jablkon Best of/mala lesni
CD Best of/mala
lesni
DVD Jablkon Oslava
DVD Oslava
CD Jablkon Oslava
CD Oslava
2xCD V/a Indies Records 2004 Indies records 2004
2xCD Indies records
2004
CD  Jablkon Hovada bozi / animantes dei
CD Hovada bozi /
animantes dei

»
Najnovšie videá
Najnovšie videá

Jablkoň - Nekonečná

jablkoň - čas ptačích hrází

Jablkoň - Akční hvězda

Jablkoň - Teta

Jablkoň - Cestující v noci

Jablkoň - Kateřina
»
Najnavštevovanejšie piesne
Najnavštevovanejšie piesne
Velmi nesmělá - 2 - akordy

Narozeniny - akordy a text

Hovada boží - akordy a text

Rikičuču - akordy a text

Rikičuču - taby

Nekonečná - akordy a text

Ráno - akordy a text

5 policajtů - 2 - akordy a text

Notre Dame - akordy a text

Když v noci sněží - 2 - akordy a text

viac




home | interpreti | register piesní | cd & dvd shop | pripomienky/nápady | kontakt | ochrana údajov | inzercia
Copyright © Pavol Bacigál, 2000-2017. Všetky práva vyhradené.
TOPlist