The Paranoid

piesne (53)

  texty (39) / preklady (0)
  akordy (8) / taby (12)
  noty (0) / slideshow (0)

články (16)
fotogaléria
diskusia
videá
diskografia
v obchode
odkazy
koncerty
sťahuj



pridaj vlastný článok

Asenth:
Finále Rockovej maturity 2016 preverí tvrdosť kategórie Hard & Heavy - včera o 17:30 | redakcia Súťaž neprofesionálnych hudobníkov Rocková maturita sa... - zoznam.sk


Chinaski:
Hudobníci budú na TOPFEST-e skladať rockovú maturitu. V porote sú aj Zuzana
Smatanová, či Polemic!
- Published by MUSIC ZONE on 24. marca 2016 | Komentáre vypnuté na Hudobníci budú na TO... - music-zone.eu


The Paranoid:
Na Rock for People prídu aj The Paranoid - Na český festival Rock for People príde aj slovenská kapela The Paranoid. Do programu...


Smola A Hrušky:
Smola a Hrušky a The Paranoid odpálili turné vypredaným halloweenskym
koncertom!
- ... - livemusic.sk


The Paranoid:
Slovenští Paranoid hosty Rockle - Paranoid a jejich deska Sedem - Foto: Jiří Matějů Paranoid a jejich deska SedemFot... - rozhlas.cz


Arakain:
Co vychází v březnu 2014: přehled novinek - Co vychází v březnu: přehled novinek];" style="display: none;">  ... - IREPORT


The Paranoid:
Skupina The Paranoid má nový album a klip k piesni Nikdy nezabudnem - ... - spravy.pozri.sk


The Paranoid:
Skupina The Paranoid sa ocitla na psychiatrii - Na psychiatrickom oddelení v Prešove koncom minulého roka náhle hospitalizovali Igora...


Black Sabbath:
Paranoid, Iron Man nebo War Pigs naživo: přijedou Black Sabbath - Paranoid, Iron Man nebo War Pigs naživo: přijedou Black Sabbath];" style="display: none... - IREPORT


The Paranoid:
The Paranoid - Dva svety - Slovenská kapela The Paranoid začíná nabírat na slávě i mimo svou zemi. Svým ... - rockmag.cz


 

The Paranoid

Fanúšikov: 30



A B C Č D E F G H CH I J K L Ľ M N O P Q R S Š T U V W X Y Z Ž



ako:
The Paranoid - Pocit slobody (Drop C)
The Paranoid - Pocit slobody (Drop C)

tlač

edituj
Pesničku videlo 4138 návštevníkov.

Kvalita tabov : bez hodnotenia
Hodnotilo ľudí: 0 ohodnoť aj ty
Prispievateľ:

Slavomír Mikolaj
  *** Autor textu: The Paranoid *** Autor hudby: The Paranoid
      E   E   E   E   E   E   E   E      E   E   E   E   E   E   E   E   
D||----------------------------------|----------------------------------|
A||----------------------------------|----------------------------------|
F||----------------------------------|----------------------------------|
C||----------------------------------|----------------------------------|
G||--------------14--14--14--15--15--|--------------14--14--14--15--15--|
C||--14--14--14----------------------|--14--14--14----------------------|


E E E E E E E E E E E E E E E E
----------------------------------|----------------------------------|
----------------------------------|----------------------------------|
----------------------------------|----------------------------------|
----------------------------------|----------------------------------|
--------------14--14--14--15--15--|--------------14--14--14--15--15--|
--12--12--12----------------------|--12--12--12----------------------|


E E E E E E E E E E E E E E E E
----------------------------------|----------------------------------|
----------------------------------|----------------------------------|
----------------------------------|----------------------------------|
----------------------------------|----------------------------------|
--------------14--14--14--15--15--|--------------14--14--14--15--15--|
--14--14--14----------------------|--14--14--14----------------------|


E E E E E E E E E E E E E E E E
----------------------------------|----------------------------------|
----------------------------------|----------------------------------|
----------------------------------|----------------------------------|
----------------------------------|----------------------------------|
--------------14--14--14--15--15--|--------------14--14--14--15--15--|
--12--12--12----------------------|--12--12--12----------------------|


E E E E E E E E E E E E E E E E
----------------------------------|----------------------------------|
----------------------------------|----------------------------------|
----------------------------------|----------------------------------|
----------------------------------|----------------------------------|
--------------14--14--14--15--15--|--------------14--14--14--15--15--|
--14--14--14----------------------|--14--14--14----------------------|


E E E E E E E E E E E E E E E E
-------------------------------|--------------------------------|
-------------------------------|--------------------------------|
-------------------------------|--------------------------------|
-------------------------------|--------------------------------|
--------------9--9--9--10--10--|--------------10--10--10--9--9--|
--10--10--10-------------------|--12--12--12--------------------|


E E E E E E E E E E E E E E E E
----------------------------------|----------------------------------|
----------------------------------|----------------------------------|
----------------------------------|----------------------------------|
----------------------------------|----------------------------------|
--------------14--14--14--15--15--|--------------14--14--14--15--15--|
--14--14--14----------------------|--14--14--14----------------------|


E E E E E E E E E E E E E E E E
----------------------------------|----------------------------------|
----------------------------------|----------------------------------|
----------------------------------|----------------------------------|
----------------------------------|----------------------------------|
--------------14--14--14--15--15--|--------------14--14--14--15--15--|
--12--12--12----------------------|--12--12--12----------------------|


E E E E E E E E E E E E E E E E
----------------------------------|----------------------------------|
----------------------------------|----------------------------------|
----------------------------------|----------------------------------|
----------------------------------|----------------------------------|
--------------14--14--14--15--15--|--------------14--14--14--15--15--|
--14--14--14----------------------|--14--14--14----------------------|


E E E E E E E E E E E E E E E E
-------------------------------|--------------------------------|
-------------------------------|--------------------------------|
-------------------------------|--------------------------------|
-------------------------------|--------------------------------|
--------------9--9--9--10--10--|--------------10--10--10--9--9--|
--10--10--10-------------------|--12--12--12--------------------|


E E E E E E E E E E E E E E E E
--------------------------|--------------------------|
--------------------------|--------------------------|
--9--9--9--9--9--9--9--9--|--9--9--9--9--9--9--9--9--|
--9--9--9--9--9--9--9--9--|--9--9--9--9--9--9--9--9--|
--7--7--7--7--7--7--7--7--|--7--7--7--7--7--7--7--7--|
--------------------------|--------------------------|


E E E E E E E E E E E E E E E E
--------------------------|--------------------------|
--------------------------|--------------------------|
--7--7--7--7--7--7--7--7--|--7--7--7--7--7--7--7--7--|
--7--7--7--7--7--7--7--7--|--7--7--7--7--7--7--7--7--|
--5--5--5--5--5--5--5--5--|--5--5--5--5--5--5--5--5--|
--------------------------|--------------------------|


E E E E E E E E E E E E E E E E
--------------------------|--------------------------|
--------------------------|--------------------------|
--9--9--9--9--9--9--9--9--|--9--9--9--9--9--9--9--9--|
--9--9--9--9--9--9--9--9--|--9--9--9--9--9--9--9--9--|
--7--7--7--7--7--7--7--7--|--7--7--7--7--7--7--7--7--|
--------------------------|--------------------------|


E E E E E E E E E E E E E E E E
--------------------------|--------------------------|
--------------------------|--------------------------|
--5--5--5--5--5--5--5--5--|--7--7--7--7--7--7--7--7--|
--5--5--5--5--5--5--5--5--|--7--7--7--7--7--7--7--7--|
--3--3--3--3--3--3--3--3--|--5--5--5--5--5--5--5--5--|
--------------------------|--------------------------|


E E E E E E E E E E E E E E E E
--------------------------|--------------------------|
--------------------------|--------------------------|
--9--9--9--9--9--9--9--9--|--9--9--9--9--9--9--9--9--|
--9--9--9--9--9--9--9--9--|--9--9--9--9--9--9--9--9--|
--7--7--7--7--7--7--7--7--|--7--7--7--7--7--7--7--7--|
--------------------------|--------------------------|


E E E E E E E E E E E E E E E E
--------------------------|--------------------------|
--------------------------|--------------------------|
--7--7--7--7--7--7--7--7--|--7--7--7--7--7--7--7--7--|
--7--7--7--7--7--7--7--7--|--7--7--7--7--7--7--7--7--|
--5--5--5--5--5--5--5--5--|--5--5--5--5--5--5--5--5--|
--------------------------|--------------------------|


E E E E E E E E E E E E E E E E
--------------------------|--------------------------|
--------------------------|--------------------------|
--9--9--9--9--9--9--9--9--|--9--9--9--9--9--9--9--9--|
--9--9--9--9--9--9--9--9--|--9--9--9--9--9--9--9--9--|
--7--7--7--7--7--7--7--7--|--7--7--7--7--7--7--7--7--|
--------------------------|--------------------------|


E E E E E E E E E E E E E E E E E Q E E
--------------------------|--------------------------|----------------|
--------------------------|--------------------------|----------------|
--5--5--5--5--5--5--5--5--|--7--7--7--7--7--7--7--7--|----------------|
--5--5--5--5--5--5--5--5--|--7--7--7--7--7--7--7--7--|--2--2----2--2--|
--3--3--3--3--3--3--3--3--|--5--5--5--5--5--5--5--5--|--2--2----2--2--|
--------------------------|--------------------------|--2--2----2--2--|


E E E E E E E E Q E E E E E E E E E
-----------------------|----------------|-----------------------|
-----------------------|----------------|-----------------------|
-----2--4--2--4--2-----|--5--5----5--5--|-----2--4--2--4--2-----|
--------------------4--|--5--5----5--5--|--------------------4--|
-----------------------|--3--3----3--3--|-----------------------|
-----------------------|----------------|-----------------------|


E Q E E E E E E E E E E Q E E
----------------|-----------------------|----------------|
----------------|-----------------------|----------------|
----------------|-----2--4--2--4--2-----|--5--5----5--5--|
--2--2----2--2--|--------------------4--|--5--5----5--5--|
--2--2----2--2--|-----------------------|--3--3----3--3--|
--2--2----2--2--|-----------------------|----------------|


E E E E E E E E E E E E E E E E E E E E E E E
-----------------------|--------------------------|--------------------------|
-----------------------|--------------------------|--------------------------|
-----2--4--2--4--2-----|--------------------------|--5--5--5--5--5--5--5--5--|
--------------------4--|--2--2--2--2--2--2--2--2--|--5--5--5--5--5--5--5--5--|
-----------------------|--2--2--2--2--2--2--2--2--|--3--3--3--3--3--3--3--3--|
-----------------------|--2--2--2--2--2--2--2--2--|--------------------------|


E E E E E E E E E E E E E E E E
--------------------------|--------------------------|
--------------------------|--------------------------|
--------------------------|--4--4--4--4--4--4--4--4--|
--5--5--5--5--5--5--5--5--|--4--4--4--4--4--4--4--4--|
--5--5--5--5--5--5--5--5--|--2--2--2--2--2--2--2--2--|
--5--5--5--5--5--5--5--5--|--------------------------|


E E E E E E E E E E E E E E E E
--------------------------|--------------------------|
--------------------------|--------------------------|
--------------------------|--5--5--5--5--5--5--5--5--|
--2--2--2--2--2--2--2--2--|--5--5--5--5--5--5--5--5--|
--2--2--2--2--2--2--2--2--|--3--3--3--3--3--3--3--3--|
--2--2--2--2--2--2--2--2--|--------------------------|


E E E E E E E E E E E E E E E E
--------------------------|--------------------------|
--------------------------|--------------------------|
--------------------------|--4--4--4--4--4--4--4--4--|
--5--5--5--5--5--5--5--5--|--4--4--4--4--4--4--4--4--|
--5--5--5--5--5--5--5--5--|--2--2--2--2--2--2--2--2--|
--5--5--5--5--5--5--5--5--|--------------------------|


Q E E E E E H E E E E E E E
-------------------------------|-----------------------|
-------------------------------|-----------------------|
-------------------------------|-----------------------|
-------------------------------|-----------------------|
-------7--7--5--5--7-----------|--------7--7--5--5--7--|
--2-------------------2--------|-----------------------|


Q E E E E E H E E E E E E E
-------------------------------|-----------------------|
-------------------------------|-----------------------|
-------------------------------|-----------------------|
-------------------------------|-----------------------|
-------7--7--5--5--7-----------|--------7--7--5--5--7--|
--2-------------------2--------|-----------------------|


Q E E E E E E E E E E E E E Q E E E E E E
-------------------------|-----------------------|-------------------------|
-------------------------|-----------------------|-------------------------|
-------------------------|-----------------------|-------------------------|
-------5--5--4--4--5-----|--------5--5--4--4--5--|-------5--5--4--4--5-----|
-------------------------|-----------------------|-------------------------|
--2-------------------2--|-----------------------|--2-------------------2--|


E E E E E E E E E E E E E E E
-----------------------|----------------------------------|
-----------------------|----------------------------------|
-----------------------|----------------------------------|
--------5--5--4--4--5--|----------------------------------|
-----------------------|--------------14--14--14--15--15--|
-----------------------|--14--14--14----------------------|


E E E E E E E E E E E E E E E E
----------------------------------|----------------------------------|
----------------------------------|----------------------------------|
----------------------------------|----------------------------------|
----------------------------------|----------------------------------|
--------------14--14--14--15--15--|--------------14--14--14--15--15--|
--14--14--14----------------------|--12--12--12----------------------|


E E E E E E E E E E E E E E E E
----------------------------------|----------------------------------|
----------------------------------|----------------------------------|
----------------------------------|----------------------------------|
----------------------------------|----------------------------------|
--------------14--14--14--15--15--|--------------14--14--14--15--15--|
--12--12--12----------------------|--14--14--14----------------------|


E E E E E E E E E E E E E E E E
----------------------------------|-------------------------------|
----------------------------------|-------------------------------|
----------------------------------|-------------------------------|
----------------------------------|-------------------------------|
--------------14--14--14--15--15--|--------------9--9--9--10--10--|
--14--14--14----------------------|--10--10--10-------------------|


E E E E E E E E E E E E E E E E
--------------------------------|--------------------------|
--------------------------------|--------------------------|
--------------------------------|--9--9--9--9--9--9--9--9--|
--------------------------------|--9--9--9--9--9--9--9--9--|
--------------10--10--10--9--9--|--7--7--7--7--7--7--7--7--|
--12--12--12--------------------|--------------------------|


E E E E E E E E E E E E E E E E
--------------------------|--------------------------|
--------------------------|--------------------------|
--9--9--9--9--9--9--9--9--|--7--7--7--7--7--7--7--7--|
--9--9--9--9--9--9--9--9--|--7--7--7--7--7--7--7--7--|
--7--7--7--7--7--7--7--7--|--5--5--5--5--5--5--5--5--|
--------------------------|--------------------------|


E E E E E E E E E E E E E E E E
--------------------------|--------------------------|
--------------------------|--------------------------|
--7--7--7--7--7--7--7--7--|--9--9--9--9--9--9--9--9--|
--7--7--7--7--7--7--7--7--|--9--9--9--9--9--9--9--9--|
--5--5--5--5--5--5--5--5--|--7--7--7--7--7--7--7--7--|
--------------------------|--------------------------|


E E E E E E E E E E E E E E E E
--------------------------|--------------------------|
--------------------------|--------------------------|
--9--9--9--9--9--9--9--9--|--5--5--5--5--5--5--5--5--|
--9--9--9--9--9--9--9--9--|--5--5--5--5--5--5--5--5--|
--7--7--7--7--7--7--7--7--|--3--3--3--3--3--3--3--3--|
--------------------------|--------------------------|


E E E E E E E E
--------------------------||
--------------------------||
--7--7--7--7--7--7--7--7--||
--7--7--7--7--7--7--7--7--||
--5--5--5--5--5--5--5--5--||
--------------------------||




Duration Legend
---------------
W - whole
H - half
Q - quarter
E - 8th
S - 16th
T - 32nd
X - 64th
. - note dotted
|-n-| - n-tuplets


Tablature Legend
----------------
L - tied note
x - dead note
g - grace note
(n) - ghost note
> - accentuded note
NH - natural harmonic
AH - artificial harmonic
TH - tapped harmonic
SH - semi harmonic
PH - pitch harmonic
h - hammer on
p - pull off
b - bend
br - bendRelease
pb - preBend
pbr - preBendRelease
brb - bendReleaseBend
\n/ - tremolo bar dip
\n - tremolo bar dive
-/n - tremolo bar Release up
/n\ - tremolo bar inverted dip
/n - tremolo bar return
-\n - tremolo bar Release down
S - shift slide
s - legato slide
/ - slide into from below or out of upwards
\ - slide into from above or out of downwards
~ - vibrato
W - wide vibrato
tr - trill
TP - tremolo picking
T - tapping
S - slap
P - pop
< - fade in
^ - brush up
v - brush down

 
»
Tvoje obľúbené položky
Tvoje obľúbené položky
»
Nové albumy interpreta
Nové albumy interpreta
6
CD Paranoid Tu a teraz
CD Tu a teraz
VINYL Paranoid Satyagraha [vinyl]
VINYL Satyagraha
[vinyl]
CD Paranoid Satyagraha
CD Satyagraha
CD The Paranoid Sedem
CD Sedem

»
Najnovšie videá
Najnovšie videá

THE PARANOID - (Pocit slobody) - Tlmace

The Paranoid - Pocit slobody (cover)

THE PARANOID - Pocit slobody (29.1.2011

The Paranoid - Pocit slobody (30. 10. 20

The Paranoid - Pocit slobody

The Paranoid - Pocit slobody [ Rockshow
»
Najnavštevovanejšie piesne
Najnavštevovanejšie piesne
Niekde tam - akordy a text

Zachráň ma - akordy

Smäd - akordy a text

V útrobách - akordy a text

Smäd - text

Únos - text

Odkaz - text

Zachráň Ma - text

Búrka Sĺz - text

Búrka Sĺz [+solo] - taby

Niekde tam - akordy a text

Pocit slobody (Drop C) - taby

V útrobách - text

Záblesky rán - text

Posledný nádych - text

Odkaz - taby

Únos - taby

Únos - taby

Je v nás viac - text

Nepatrím Nikomu - text

viac




home | interpreti | register piesní | cd & dvd shop | pripomienky/nápady | kontakt | ochrana údajov | inzercia

TOPlist