Deratizéři

piesne (18)

  texty (12) / preklady (0)
  akordy (8) / taby (3)
  noty (0) / slideshow (0)

články (2)
fotogaléria
diskusia
videá
diskografia
v obchode
odkazy
koncerty
sťahuj



pridaj vlastný článok

Deratizéři:
Oceloví Ptáci Tour 2012! - Oceloví Ptáci Tour 2012! „Oceloví ptáci tour 2013“ zakázanÝovoce a Totální nasazení ... - punk.cz


Deratizéři:
Deratizéři: Prostě deratizujeme muzikou - ireport.cz


-123 Minut:
České hudební festivaly 2004 - Hudební festivaly 2004 16. května 2004, 06:01 Lonny Venku se nám všechno pěkně ze... - musicservice.cz


Deratizéři:
Melodický punkrock zazní Skrýchovem - Melodický punkrock zazní Skrýchovem - 20.4.2004 Titulek by tentokrát mohl znít třeba ... - ceskyrock.cz


 

Deratizéři

Fanúšikov: 0



A B C Č D E F G H CH I J K L Ľ M N O P Q R S Š T U V W X Y Z Ž



ako:
Deratizéři - O bludičce obludičce
Deratizéři - O bludičce obludičce

tlač

edituj
Pesničku videlo 2644 návštevníkov.

Kvalita tabov : bez hodnotenia
Hodnotilo ľudí: 0 ohodnoť aj ty
Prispievateľ:

Chosse
O BLUDIČCE OBLUDIČCE

SÓLO FLÉTNA 1 (akordy jako refrém)

G A Hmi
Tvůj pocit zdání těžko klame
G A D
v těch místech kde jsou močály
G A Hmi
vítr od Zadních luží vane
G A Hmi
já ve tmě zářím do dáli

G A Hmi
Světýlkem uprostřed těch temnot
G A D
z nichž lidem drkotají zuby
G A Hmi
neříkej že přicházím nevhod
G A Hmi A
a přivedu tě do záhuby

ref.:
D A
Bludičko Obludičko
Hmi F#mi
příšero na slovíčko
G A D A
koho zas lákáš do svých sítí
D A
do tmy se město noří
Hmi F#mi
a v lužích jak když hoří
G A D
do tmy tam světýlko svítí

Vždyť jste se odjakživa báli
a ze tmy byli zoufalí
tak knoty lamp a svící plály
s ohněm jste vždycky troufalí

Dál hrajte si na pány světla
tma však pohltí i víru
a až jednou přijde konec světa
budu zářit ve vesmíru

ref.:
Bludičko Obludičko ...

solo: flétna

ref.:
Bludičko Obludičko
příšero na slovíčko
koho zas lákáš do svých sítí
do tmy se město noří
a v lužích jak když hoří
do tmy tam světýlko svítí

ref.:
Bludičko Obludičko
příšero na slovíčko
koho zas lákáš do svých sítí
Slaný se do tmy noří
a v lužích jak když hoří
do tmy tam světýlko svítí
Do tmy tam světýlkem svítím



SÓLO FLÉTNA 1
e|-------------------------------------------
h|-10-10-10-10--8----------------------------
g|---------------11-9----11-11-11-11--9------
D|-------------------------------------12-11-
A|-------------------------------------------
E|-------------------------------------------

e|-------------------------------------------
h|-------------------------------------------
g|---------9-9--9-9--11-11-------------------
D|-12-12-12---12-----------------------------
A|-------------------------------------------
E|-------------------------------------------

e|-------------------------------------------
h|-10-10-10-10--8----------------------------
g|---------------11-9----11-11-11-11--9------
D|-------------------------------------12-11-
A|-------------------------------------------
E|-------------------------------------------

e|-------------------------------------------
h|-------------------------------------------
g|---------9-9--9-9--------------------------
D|-12-12-12---12-----12-12-------------------
A|-------------------------------------------
E|-------------------------------------------

SOLO FLÉTNA 2
e|--------------------------------
h|--------------------------------
g|-12---11-9------9-11-9----9-11--
D|--------------12------12--------
A|--------------------------------
E|--------------------------------

e|----------------------------------------
h|--------12-10---------------10----------
g|-11-12-------12-11-9-11-11----11-9------
D|----------------------------------12----
A|----------------------------------------
E|----------------------------------------

e|----------------------------------------------
h|----------------------------------------------
g|-12-11-9----9--11-9--9-11--11-12-11-9-11-9-11-
D|----------12-------12-------------------------
A|----------------------------------------------
E|----------------------------------------------



 
»
Tvoje obľúbené položky
Tvoje obľúbené položky
»
Nové albumy interpreta
Nové albumy interpreta

»
Najnovšie videá
Najnovšie videá

Deratizéři - O bludičce Obludičce

Deratizéři - O bludičce Obludičce (Jiste

Deratizéři - O bludičce Obludičce (unplu

Deratizéři - O bludičce Obludičce (Soběs

Deratizéři - O bludičce obludičce

Deratizéři -O bludičce obludičce (Slánsk
»
Najnavštevovanejšie piesne
Najnavštevovanejšie piesne



home | interpreti | register piesní | cd & dvd shop | pripomienky/nápady | kontakt | ochrana údajov | inzercia
Copyright © Pavol Bacigál, 2000-2017. Všetky práva vyhradené.
TOPlist