Deratizéři

piesne (18)

  texty (12) / preklady (0)
  akordy (8) / taby (3)
  noty (0) / slideshow (0)

články (2)
fotogaléria
diskusia
videá
diskografia
v obchode
odkazy
koncerty
sťahuj



pridaj vlastný článok

Deratizéři:
Oceloví Ptáci Tour 2012! - Oceloví Ptáci Tour 2012! „Oceloví ptáci tour 2013“ zakázanÝovoce a Totáln... - punk.cz


Deratizéři:
Deratizéři: Prostě deratizujeme muzikou - ireport.cz


-123 Minut:
České hudební festivaly 2004 - Hudební festivaly 2004 16. května 2004, 06:01 Lonny Venku se nám všechno pěk... - musicservice.cz


Deratizéři:
Melodický punkrock zazní Skrýchovem - Melodický punkrock zazní Skrýchovem - 20.4.2004 Titulek by tentokrát mohl znít t... - ceskyrock.cz


 

Deratizéři

Fanúšikov: 0



A B C Č D E F G H CH I J K L Ľ M N O P Q R S Š T U V W X Y Z Ž



ako:
Deratizéři - Kominík
Deratizéři - Kominík

tlač

edituj
Rok vzniku: 1999
Pesničku videlo 2198 návštevníkov.

Kvalita tabov : bez hodnotenia
Hodnotilo ľudí: 0 ohodnoť aj ty
Prispievateľ:

Chosse
  *** Autor textu: Kolí *** Autor hudby: Kolí
KOMINÍK

solo
e|-10-----------------------------------
h|---10---------------------------------
g|-----12-11-----12-12-12-14-12---11----
D|----------12--------------------------
A|----------------------------------14--
E|--------------------------------------


e|-10-----------------------------------------------
h|---10---------------------------------------------
g|-----12-11-----12-12-12-14-12---11-------11-------
D|----------12----------------------14---14--14-12--
A|--------------------------------------------------
E|--------------------------------------------------




D
Jedna smutná paní přišla
G A
na poštu dát inzerát
nutně shání kominíka
co trocha štěstí může dát
D
naj na naj naj
naj na naj naj
E
naj na naj naj
G
jeeeeee

Pro štěstí je nejspíš třeba
trocha mouru trocha sazí
kominíka leckdo hledá
jenže nikdo na něj nenarazí

Jak se život pořád mění
dávno kominíci vymřeli
dnes se štěstí milá paní
nepřináší sazemi

Tohle paní vůbec neví
a tak píše inzerát
jenže nikdo neodpoví
kdo jí štěstí může dát
malinko štěstí

 
»
Tvoje obľúbené položky
Tvoje obľúbené položky
»
Nové albumy interpreta
Nové albumy interpreta
6

»
Najnovšie videá
Najnovšie videá

zpvm si kanky

Prace aba
»
Najnavštevovanejšie piesne
Najnavštevovanejšie piesne



home | interpreti | register piesní | cd & dvd shop | pripomienky/nápady | kontakt | ochrana údajov | inzercia

TOPlist