Jaromír Nohavica

piesne (871)

  texty (616) / preklady (97)
  akordy (505) / taby (122)
  noty (10) / slideshow (0)

články (222)
fotogaléria
diskusia
videá
diskografia
v obchode
odkazy
koncerty
sťahuj



pridaj vlastný článok

Jaromír Nohavica:
Foto: Nohavica v Dubline a Londýne - Fotografie z krátkého turné do Velké Británie a Irska - koncerty v Londýně a Dublinu. Hos... - nohavica.cz


Jaromír Nohavica:
Svou káru táhnem dál: Jaromír Nohavica a Kapela - Jaromír Nohavica autor: Česká televize zvětšit obrázek Svou káru táhnem dál: Jaromí... - scena.cz


Petr Hapka:
JAREK NOHAVICA ZPÍVÁ PÍSEŇ PRO HAPKU - Jaromír Nohavica zhudebnil a nazpíval text Michala Horáčka věnovaný Petru Hapkovi. Mic... - youtube.com


Jaromír Nohavica:
Sarkastická Nohavicova pieseň unikla na internet: Drsná provokácia slovenských
hokejistov!
- Sarkastická Nohavicova pieseň unikla na internet: Drsná provokácia slovenských hokejistov... - cas.sk


Jaromír Nohavica:
Nohavica zložil skladbu pre slovenských hokejistov - Český pesničkár Jaromír Nohavica predstavil počas tohtotýždňového turné v Bratislave špec...


Jaromír Nohavica:
Boris Urbánek píše s Nohavicou operu o Juditě - Jarek Nohavica Operu na motivy starozákonního příběhu o Juditě, známé ze slavného o... - novinky.cz


Korben Dallas:
Valašský špalíček ohlašuje samé písničkáře - DNES | Autor: Libor Galia | sekce: festivaloviny Valašský špalíček 2013, ... - muzikus.cz


Jaromír Nohavica:
Liberec, Chomutov, Teplice. Nohavica opět pobaví sever - Jarek Nohavica. Severní Čechy - Máte vstupenky? Ne? Ale ony už se nám ty zážitky rychl...


Karel Kryl:
Nohavica hral a spieval Kryla. K jeho nedožitým sedemdesiatinám - Nohavica hral a spieval Kryla. K jeho nedožitým sedemdesiatinám Pr i počúvaní priam... - sme.sk


Jaromír Nohavica:
Do prodeje jdou další lístky na pražské koncerty Jaromíra Nohavici - musicserver.c... - musicserver.cz


 

Jaromír Nohavica

Fanúšikov: 259



A B C Č D E F G H CH I J K L Ľ M N O P Q R S Š T U V W X Y Z Ž



ako:
Jaromír Nohavica - Když mě brali za vojáka
Jaromír Nohavica - Když mě brali za vojáka

tlač

edituj
Rok vzniku: 1990
Pesničku videlo 11450 návštevníkov.

Kvalita tabov : bez hodnotenia
Hodnotilo ľudí: 0 ohodnoť aj ty
Prispievateľ:

matti25
  *** Autor textu: Jaromír Nohavica *** Autor hudby: Jaromír Nohavica
Capo 2: [Ami] [C] [G] [C] [Dmi] [Ami] [E] [F, G] [C, G] [Ami, E] [Ami]

Když mě brali za vo- já- a- ka, stříhali mě doho-
E |--------------0-------|--------------0-------|--------------3-------|
B |--------1-------------|--------1-------------|--------3-------------|
G |-----2-----2-----2----|-----0-----0-----0----|-----0-----0-----0----|
D |----------------------|----------------------|----------------------|
A |--0-------------------|--3-------------------|----------------------|
E |----------------------|----------------------|--3-------------------|

la. Já vypadal jsem jako bĺ- bec,
--------------0-------|--------------1-------|--------------0-------|
--------1-------------|--------3-------------|--------1-------------|
-----0-----0-----0----|-----2-----2-----2----|-----2-----2-----2----|
----------------------|--0-------------------|----------------------|
--3-------------------|----------------------|--0-------------------|
----------------------|----------------------|----------------------|

jak ti všichni doko la lá la lá,
--------------0-------|----------------------|----------------------|
--------0-------------|--------1-------------|--------1-------------|
-----1-----1-----1----|-----2-----2-----0----|-----0-----0-----0----|
----------------------|----------------------|----------------------|
----------------------|----------------------|--3-------------------|
--0-------------------|--1-----------3-------|--------------3-------|

jak ti všichni doko- la.
----------------------|--------------0-------|--------------0-------|
--------1-------------|--------1-------------|--------1-------------|
-----2-----2-----1----|-----2-----2-----2----|-----2-----2-----2----|
----------------------|----------------------|----------------------|
--0-------------------|--0-------------------|--0-------------------|
--------------0-------|----------------------|----------------------|

Zavřeli mě do kasáren,
začali mě učiti
jak mám správný voják býti
a svou zemi chrániti.

Na pokoji po večerce
ke zdi jsem se přitulil.
Vzpomněl jsem si na svou milou
krásně jsem si zabulil.

Když přijela po půl roce,
měl jsem zrovna zápal plic,
po chodbě furt někdo chodil,
tak nebylo z toho nic

Neplačte, vy oči moje,
ona za to nemohla,
protože mladá holka lásku potřebuje,
a tak si k lásce pomohla.

Major nosí velkou hvězdu,
před branou ho potkala.
Řek jí, že má zrovna volný kvartýr
Tak se sbalit nechala.

Co je komu do vo- já- a- ka, Když ho holka zradi
|--------------0-------|--------------0-------|--------------3-------|
|--------1-------------|--------1-------------|--------3-------------|
|-----2-----2-----2----|-----0-----0-----0----|-----0-----0-----0----|
|----------------------|----------------------|----------------------|
|--0-------------------|--3-------------------|----------------------|
|----------------------|----------------------|--3-------------------|

la. Na shledanou pane Fráňo Šra-ámku
--------------0-------|--------------1-------|--------------0-------|
--------1-------------|--------3-------------|--------1-------------|
-----0-----0-----0----|-----2-----2-----2----|-----2-----2-----2----|
----------------------|--0-------------------|----------------------|
--3-------------------|----------------------|--0-------------------|
----------------------|----------------------|----------------------|

písnička už skonči- la lá la lá
--------------0-------|----------------------|----------------------|
--------0-------------|--------1-------------|--------1-------------|
-----1-----1-----1----|-----2-----2-----0----|-----0-----0-----0----|
----------------------|----------------------|----------------------|
----------------------|----------------------|--3-------------------|
--0-------------------|--1-----------3-------|--------------3-------|

jakpak se vám líbi- la lá la lá
----------------------|----------------------|----------------------|
--------1-------------|--------1-------------|--------1-------------|
-----2-----2-----1----|-----2-----2-----0----|-----0-----0-----0----|
----------------------|----------------------|----------------------|
--0-------------------|----------------------|--3-------------------|
--------------0-------|--1-----------3-------|--------------3-------|

nic moc extra neby- la
----------------------|--0-
--------1-------------|--1-
-----2-----2-----1----|--2-
----------------------|--2-
--0-------------------|--0-
--------------0-------|----


 
»
Tvoje obľúbené položky
Tvoje obľúbené položky
»
Nové albumy interpreta
Nové albumy interpreta
3xCD+DVD Nohavica Jaromir Jarek nohavica a pratele (2cd & dvd)
3xCD+DVD Jarek nohavica a
pratele (2cd &
dvd)
CD Nohavica Jaromir Tenkrat/nostalgie 90.let
CD Tenkrat/nostalgi
e 90.let
2xCD Nohavica Jaromir Archivy... 1982 a 1984
2xCD Archivy... 1982
a 1984
4xCD Nohavica Jaromir Box [mikym./3cunici/darmodej/divne stole
4xCD Box
[mikym./3cunici/
darmodej/divne
stole
CD Nohavica Jaromir Tri cunici
CD Tri cunici
CD Nohavica Jaromir Divne stoleti
CD Divne stoleti

»
Najnovšie videá
Najnovšie videá

Nohavica - Kdyz me brali za vojaka

Když mě brali na vojáka text

Jarek Nohavica - Když mě brali za vojáka

Jaromír Nohavica - Když mě brali za vojá

Jaromír Nohavica - Když mě brali za vojá

Jaromír Nohavica - Když mě brali za vojá
»
Najnavštevovanejšie piesne
Najnavštevovanejšie piesne
Křídla z mýdla - akordy

Kometa - akordy a text

Mám jizvu na rtu - akordy a text

Hlídač krav - akordy a text

Minulost - akordy a text

Dokud se zpívá - pro začátečníky - akordy a text

Zítra ráno v pět - Originál - akordy a text

Mám jizvu na rtu - doplněno - akordy

U nás na severu - akordy a text

Kříž svůj neseme - akordy

viac




home | interpreti | register piesní | cd & dvd shop | pripomienky/nápady | kontakt | ochrana údajov | inzercia
Copyright © Pavol Bacigál, 2000-2017. Všetky práva vyhradené.
TOPlist