Olympic

piesne (311)

  texty (232) / preklady (1)
  akordy (242) / taby (24)
  noty (1) / slideshow (0)

články (149)
fotogaléria
diskusia
videá
diskografia
v obchode
odkazy
koncerty
sťahuj



pridaj vlastný článok

Petr Janda:
Boris Hybner v novém klipu Olympicu k písni "Amoleta" symbolizuje smíření - Vydáno: 11.06.2016 16:25 v sekci Video - Milan Menčík SDÍLET: Olympic v posledn... - musicserver.cz


Elán:
Gott, Olympic aj Elán na megakoncerte pripomenú 50. výročie Bratislavskej lýry - včera o 11:10 | redakcia Približne 30 hitov Bratislavskej lýry zaznie opäť naživo poča... - zoznam.sk


Martin Chodúr:
Bratislavská lýra oslávi 50. Pozrite si tváre, ktoré jej kraľovali - BRATISLAVA - V Bratislave sa 9. júna 1966 začal v Športovej hale na Pasienkoch Medzinár... - atlas.sk


Ľubo Belák:
Mainstream socializmu: Vďaka Bratislavskej lýre nás spoznal aj Západ - BRATISLAVA – Najikonickejšia súťaž populárnej hudby v Československu oslavuje 50. výročie... - atlas.sk


Petr Janda:
Petr Janda: Smrt syna je trauma na celý život | (8:07) | video: Playtvak.cz - Nevadí vám mít rodinu a práci pod jednou střechou? Naopak, jsem rád, že můžu mít všechn... - idnes.cz


Olympic:
Dnes vydáva nový album - Česká kapela Olympic dnes uviedla na trh nový album s názvom Souhvězdí romantiků, ktorý j...


Olympic:
Olympic vydáva nový album Souhvězdí romantiků - ... - livemusic.sk


Petr Janda:
S Petrem Jandou si v Karlíně zahrálo 58 kytaristů. Rekord nakonec nepadl - Praha - Akustické, elektrické i plastové. Na Karlínském Lyčkově náměstí se v sobotu sešli... - denik.cz


Petr Janda:
Jandu zadržali na letisku a okamžite vykázali z USA, rodina bola v šoku: Nikdy
som ich nevidel tak plakať!
- Jandu zadržali na letisku a okamžite vykázali z USA, rodina bola v šoku: Nikdy som ich ne... - cas.sk


Arakain:
Czech Blade hitparáda pokračuje. Druhý týden opět patřil Kabaretu Dr. Caligariho - Druhý týden Czech Blade hitparády máme za sebou. Do dalšího kola postupuje pouze devět kl... - musicserver.cz


 

Olympic

Fanúšikov: 45



A B C Č D E F G H CH I J K L Ľ M N O P Q R S Š T U V W X Y Z Ž



ako:
Olympic - My už jiný nebudem - sólo
Olympic - My už jiný nebudem - sólo

tlač

edituj
Pesničku videlo 2548 návštevníkov.

Kvalita tabov : bez hodnotenia
Hodnotilo ľudí: 0 ohodnoť aj ty
Prispievateľ:

Philipscool
e-11---11---12---11---8--------9----------11---11---12---11--------11---12---14--
H-------------------------10-------12-------------------------12-----------------
G--------------------------------------------------------------------------------
D--------------------------------------------------------------------------------
A--------------------------------------------------------------------------------
E--------------------------------------------------------------------------------

e-11---11---12---11---8--------9----------11---11---12---14---16-----------------
H-------------------------10-------12--------------------------------------------
G--------------------------------------------------------------------------------
D--------------------------------------------------------------------------------
A--------------------------------------------------------------------------------
E--------------------------------------------------------------------------------

 
»
Tvoje obľúbené položky
Tvoje obľúbené položky
»
Nové albumy interpreta
Nové albumy interpreta
VINYL Olympic Souhvezdi romantiku [vinyl]
VINYL Souhvezdi
romantiku
[vinyl]
CD Olympic Souhvezdi romantiku c. 3
CD Souhvezdi
romantiku c. 3
5xCD Gott Karel Duety
5xCD Duety
VINYL Olympic Souhvezdi drsnaku [vinyl]
VINYL Souhvezdi
drsnaku [vinyl]
CD Olympic Souhvezdi drsnaku
CD Souhvezdi
drsnaku
VINYL Olympic Souhvezdi silencu /vinyl/
VINYL Souhvezdi
silencu /vinyl/

»
Najnovšie videá
Najnovšie videá

OLYMPIC My už jiný nebudem / Live Příbra

Olympic - My už jiný nebudem - Lyric Vid

Olympic - My už jiný nebudem (oficiální

Olympic - My už jiný nebudem

OLYMPIC My už jiný nebudem / KLIP O KLIP

Megakoncert radia Čas 2013 Ostrava, Olym
»
Najnavštevovanejšie piesne
Najnavštevovanejšie piesne
Slzy tvý mámy - akordy a text

Jasná Zpráva -100% presne - akordy a text

Jasná zpráva - akordy a text

Slzy tvý mámy (Správně) - akordy

Okno mé lásky - akordy a text

Dej mi víc své lásky - akordy a text

Jasná zpráva - akordy a text

Bon Soir Mademoiselle Paris - akordy

Osmý den - akordy a text

Bonsoir mademoiselle Paris - akordy a text

viac




home | interpreti | register piesní | cd & dvd shop | pripomienky/nápady | kontakt | ochrana údajov | inzercia
Copyright © Pavol Bacigál, 2000-2017. Všetky práva vyhradené.
TOPlist