Zrní

piesne (20)

  texty (12) / preklady (0)
  akordy (16) / taby (1)
  noty (0) / slideshow (0)

články (0)
fotogaléria
diskusia
videá
diskografia
v obchode
odkazy
koncerty
sťahuj



pridaj vlastný článok

Zrní:
Zrní chystají svůj největší koncert, v říjnu zahrají ve Foru Karlín za
doprovodu filharmonie
- Zrní chystají svůj největší koncert, v říjnu zahrají ve Foru Karlín za doprovod... - IREPORT


Chinaski:
Český albový žebříček už bere v potaz digitální trh, bodují v něm
Paulie Garand nebo Zrní
- Vydáno 12.04.2017 | autor: Josef Martínek Domácí albová hitparáda přišla s... - ireport.cz


Tata Bojs:
Tata Bojs a Zrní podporují recyklaci - Tata Bojs a Zrní podporují recyklaci Autor: Iva Boková 10.05.2016 Tisk Projekt Ek... - abradio.cz


Zrní:
Kapela Zrní, jednotka českej alternatívnej scény, mieri na Slovensko - Kapela Zrní, jednotka českej alternatívnej scény, mieri na Slovensko ... - ahudba.sk


Clean Bandit:
Colours of Ostrava pridávajú Kasabian, Clean Bandit, Rodrigo y Gabriela, Zrní
s Janáčkovou filharmóniou Ostrava a nový electro stage
- Colours of Ostrava pridávajú Kasabian, Clean Bandit, Rodrigo y Gabriela, Zrní s Janá... - ahudba.sk


Boris Carloff:
Cenu Apollo může podruhé získat Boris Carloff. Šanci má Lenka Dusilová i
Zrní
- /**/ více tiscali.c... - IREPORT


Korben Dallas:
Korben Dallas a Zrní vypredali MMC, kde pokrstia nové albumy - Korben Dallas a Zrní vypredali MMC, kde pokrstia nové albumy ... - ahudba.sk


Balthazar:
Headlinery letošního Nouvelle Prague budou Balthazar a Zrní - /**/ více tis... - IREPORT


Zrní:
Zrní lákají na novou deskou, s 'Následuj kojota' vyjedou na turné - Zrní lákají na novou deskou, s "Následuj kojota" vyjedou na turné Vydáno: 04.09.... - musicserver.cz


Korben Dallas:
Korben Dallas a Zrní predstavia nové albumy na spoločných koncertoch - Korben Dallas a Zrní predstavia nové albumy na spoločných koncertoch ... - ahudba.sk


 

Zrní

Fanúšikov: 3



A B C Č D E F G H CH I J K L Ľ M N O P Q R S Š T U V W X Y Z Ž



ako:
Zrní - Dva - intro
Zrní - Dva - intro

tlač

edituj
Pesničku videlo 4344 návštevníkov.

Kvalita tabov : bez hodnotenia
Hodnotilo ľudí: 0 ohodnoť aj ty
Prispievateľ:

Zlinak
   

Am Em
|------------------|----------------|----------------|--------------------|
|o----1--0h1-------|-----1----0-----|----------------|-------------------o|
|-----2----------2-|--------2----2--|------0---0---0-|--------------------|
|------------------|----------------|-2------2---2---|-----2---2---2---2--|
|o-0---------------|----------------|----2-----------|-------2---2---2---o|
|------------------|----------------|-0--------------|--------------------|


F Am
|-----------------|---------------------|-----------------|----------------|
|-----------------|----------0----------|----1--0h1-------|-----1----0-----|
|----2--0h2-------|-----2---------------|----2----------2-|--------2----2--|
|---------------3-|--------3------------|-----------------|----------------|
|-----------------|---------------------|-0---------------|----------------|
|-1---------------|---------------------|-----------------|----------------|


F Em
|-----------------|----------------|----------------|-------------------|
|-----------------|----------------|----------------|-------------------|
|----2--0h2-------|-----2----0-----|------0---0---0-|-------------------|
|---------------3-|--------3----3--|-2------2---2---|-----2---2---2---2-|
|-----------------|----------------|----2-----------|-------2---2---2---|
|-1---------------|----------------|-0--------------|-------------------|


Am
|-----------------|----------------|-----------------|----------------|
|----1--0h1-------|-----1----0-----|----1--0h1-------|-----1----0-----|
|----2----------2-|--------2----2--|----2----------2-|--------2----2--|
|-----------------|----------------|-----------------|----------------|
|-0---------------|----------------|-0---------------|----------------|
|-----------------|----------------|-----------------|----------------|


 
»
Tvoje obľúbené položky
Tvoje obľúbené položky
»
Nové albumy interpreta
Nové albumy interpreta
6
CD Zrni Jiskrici
CD Jiskrici
CD Zrni Ctyri honzove a jeden ondrej v severni casti streleckeho ostrova
CD Ctyri honzove a
jeden ondrej v
severni casti
streleckeho
ostrova
CD Zrni Nasleduj kojota
CD Nasleduj kojota
CD Zrni Voni
CD Voni
CD Zrni Soundtrack ke konci sveta
CD Soundtrack ke
konci sveta
2xVINYL Zrni Nasleduj kojota [vinyl]
2xVINYL Nasleduj kojota
[vinyl]

»
Najnovšie videá
Najnovšie videá

Colours of Ostrava 16. & 17.7.2015

ZRN na OKOI se vou 2015

Zrn - Pokraj (Karlsson/Split ter Remix)

ZRN - 29.5.13 - METRO MUSIC BAR BRNO

Kruhy v Obil (2).

DVA | TWIN PEAKS SONG
»
Najnavštevovanejšie piesne
Najnavštevovanejšie piesne
Dva - akordy a text

Jabloně - akordy a text

Hýkal - akordy a text

Království - akordy a text

Tmou - akordy a text

Lazar - akordy a text

Autobus - akordy a text

Mraky, domy, les - akordy a text

Pokraj - akordy

Bojím - akordy a text

Mejsó - akordy

Některé ženy rodí jiné ženy - akordy

Autobus - text

Rychta - text

Dva - intro - taby

Edarik a Padik - akordy

Loďky - akordy

Království (verze 2) - akordy

Třesk - text

Pastorale - akordy

viac




home | interpreti | register piesní | cd & dvd shop | pripomienky/nápady | kontakt | ochrana údajov | inzercia

TOPlist