Wohnout

piesne (156)

  texty (122) / preklady (0)
  akordy (60) / taby (26)
  noty (0) / slideshow (0)

články (244)
fotogaléria
diskusia
videá
diskografia
v obchode
odkazy
koncerty
sťahuj



pridaj vlastný článok

Celeste Buckingham:
TOP 8 klipů týdne (112.): Top Dream Company uvádějí Xenofobní stát, Carmel
Buckingham je víc než jen sestra Celeste
- Vydáno před 20 hodinami | autor: Hana Bukáčková Tento týden v našem klipovém výběr... - ireport.cz


Eva Pilarová:
Wohnout oslavili na Vyžlovce Sladkých dvacet i s Evou Pilarovou - Vydáno před 13 hodinami Facebook15 Twitter0 Google+0 Kapela Wohnout si letos připom... - ireport.cz


Wohnout:
Wohnouti na svůj open air zvou řadu hostů, chybět nebude ani Eva Pilarová - Wohnouti na svůj open air zvou řadu hostů, chybět nebude ani Eva Pilarová Vydáno: 14.0... - musicserver.cz


Wohnout:
Dvacetiny s Wohnout oslaví řada hostů - Dvacetiny s Wohnout oslaví řada hostů Autor: Iva Boková 13.06.2016 Tisk Skupina Wohn... - abradio.cz


Richard Krajčo:
POST SCRIPTUM (44): "Namyšlený" Richard Krajčo a "závistivý" Matěj Homola aneb
Jak se v Česku dělá z komára velbloud
- Vydáno 05.05.2016 | autor: Simona Knotková Facebook38 Twitter0 Google+0 Co se škádlív... - ireport.cz


Atmo Music:
Okoř se šťávou představuje program: Vystoupí Slza, ATMO Music, Rybičky 48, UDG,
Voxel, Wohnout i Visací zámek
- Vydáno před 22 hodinami | autor: redakce Facebook368 Twitter0 Google+0 Už 18. ročník ... - ireport.cz


Wohnout:
REPORT: Wohnouti slavili dvacetiny. Sáhli i po neznámých kusech - Liberec /FOTOGALERIE/ - Na libereckém koncertu si fanoušci užili starší kousky, které kap... - denik.cz


Wohnout:
Wohnout: Postoj zaujmeme, až někdo zdraží pivo na 200 korun - 12. 3. 2016 kapela Wohnout (zleva Matěj Homola, Honza Homola, Zdeněk Steiner, Jirka Zemá... - aktualne.cz


Wohnout:
Wohnout slaví dvacítku a sahá do prehistorie - Minulý pátek odstartovala pražská rocková skupina Wohnout v Jihlavě koncertní turné nazva... - novinky.cz


Wohnout:
Wohnout vyhlašuje šťastné pondělí - Skupina Wohnout se rozhodla zpříjemnit fanouškům začátky týdne a nabízí jim dokumentárn... - selingerova


 

Wohnout

Fanúšikov: 27



A B C Č D E F G H CH I J K L Ľ M N O P Q R S Š T U V W X Y Z Ž



ako:
Wohnout - Popojedem
Wohnout - Popojedem

tlač

edituj
Rok vzniku: 2009
Pesničku videlo 3832 návštevníkov.

Kvalita tabov : bez hodnotenia
Hodnotilo ľudí: 0 ohodnoť aj ty
Prispievateľ:

rododendron
  *** Autor textu: Wohnout *** Autor hudby: Wohnout
Eb Tuning
Verze z alba „Plejlist 1996/2009“
Tempo = 174 bpm

Riff
eb|---------------------------------------|
Bb|---------------------------------------|
Gb|---------------------------------------|
Db|-----9--7--------------9—7-------------|
Ab|--7-------10-9—7~----7------10-9-7-----|
Eb|---------------------------------------|

eb|------------------------------|
Bb|------------------------------|
Gb|-------------------9-12-11----|
Db|-------------/9-12---------12-|
Ab|--------7-10------------------|
Eb|--7--10-----------------------|

eb|-------------------------------------------|
Bb|-----12-10-------------12-10---------------|
Gb|--9--------12-11—9~--9-------12------------|
Db|-------------------------------------------|
Ab|-------------------------------------------|
Eb|-------------------------------------------|

eb|-------------------------15----------------|
Bb|------------------15-17-----19-17-15-17~---|
Gb|--------9-12--/16--------------------------|
Db|--9--12------------------------------------|
Ab|-------------------------------------------|
Eb|-------------------------------------------|


Em D Em D
Smažky, štětky, pajzly
G D G
a vybydlený hajzly, bordýlek
D B
lacinej hotýlek

rozpoznej hajzly
když má každej stejnej modýlek
na krku motýlek

Cesta podivná je
jsme daleko od ráje na štaci
zažijem legraci
vzbudíme zájem
z nory vylezou ven gumáci
C
vrazi a žebráci
B
..a pro všechnu tu svoloč kolem


Em D Em D
Ten den kapela hrála
G
jako jedna z mála
D G B G
až do rána bílýho
pro lidi, co byli blízko
stěžovali si nízko
že jest refrén z Vrátnýho

Smažky, štětky, pajzly
a vybydlený hajzly, bordýlek
lacinej hotýlek
všechno nám čmajzli
nechali nám jen pár vzpomínek
na to jak ohýnek
plál v říši lůzy
v ulici plný hrůzy, jak z románů
jdem po ránu
klátivou chůzí
s figurama co maj pod kabátem
ruku schovánu
...a pro všechnu tu svoloč kolem

Ten den kapela hrála
jako jedna z mála
až do rána bílýho
pro lidi, co byli blízko
stěžovali si nízko
že jest refrén z Vrátnýho


eb|----------------------7-7------------------|
Bb|----------------8---------10-8-------------|
Gb|--9~-------7-------------------------------|
Db|-------7-9---9-----------------------------|
Ab|-------------------------------------------|
Eb|-------------------------------------------|

Em Em F# Em F#
Ráno v hotýlku
G B B A G
lítá hejno motýlků
snídám polívku
a tahám na světlo vzpomínku
je to jen záblesk
jak v bordýlku
sviští partička modýlků
a rada zní
tak dej si s modelkou
lajnu velkou
a zkus jí prdýlku

eb|-------------------------------------------|
Bb|-------------------------------------------|
Gb|-------------------------------------------|
Db|------------8-10------------8-10-----------|
Ab|-------8-10------------8-10-----------8-10-|
Eb|--8-10------------8-10-----------8-10------|

eb|------------------------------------------|
Bb|------------------------------------------|
Gb|------------------------------------------|
Db|----------7-9---------7-9-----------------|
Ab|------7-9---------7-9---------7-9---------|
Eb|--7-9---------7-9---------7-9-------------|

eb|-------------------------------------------|
Bb|-------------------------------------------|
Gb|-------------------------------------------|
Db|------------8-10------------8-10-----------|
Ab|-------8-10------------8-10-----------8-10-|
Eb|--8-10------------8-10-----------8-10------|

eb|------------------------------------------|
Bb|------------------------------------------|
Gb|------------------------------------------|
Db|----------7-9---------7-9-----------------|
Ab|------7-9---------7-9---------7-9---------|
Eb|--7-9---------7-9---------7-9-------------|

eb|---------------------------------------|
Bb|---------------7-10-----7-10-----7-10--|
Gb|-----------8-9------8-9------8-9-------|
Db|-------7-9-----------------------------|
Ab|---7-9---------------------------------|
Eb|---------------------------------------|


Ten den kapela hrála
jako jedna z mála
až do rána bílýho
pro lidi, co byli blízko
stěžovali si nízko
že jest refrén z Vrátnýho

pro lidi co byli blízko
znamenalo to pískot
v palbě rajčat z balkónů
zavrtalo se želízko
do těla bubeníka
skončil koncert
a jedeme domů

eb|------------------------------|
Bb|------------------------------|
Gb|------------------------------|
Db|------------------------------|
Ab|-----2--0---------------------|
Eb|--0-------3-2-0---------------|


 
»
Tvoje obľúbené položky
Tvoje obľúbené položky
»
Nové albumy interpreta
Nové albumy interpreta
CD Wohnout Laskonky a kremrole
CD Laskonky a
kremrole
2xCD Wohnout G2 acoustic stage/dvd
2xCD G2 acoustic
stage/dvd

»
Najnovšie videá
Najnovšie videá

Wohnout - Popojedem

wohnout unplugged popojedem

Wohnout - Popojedem (Óčko TV - G2 Acoust

Wohnout - Popojedem (live Hradec Králové

Wohnout - Popojedem - Veveří 2013

Wohnout - Popojedem
»
Najnavštevovanejšie piesne
Najnavštevovanejšie piesne



home | interpreti | register piesní | cd & dvd shop | pripomienky/nápady | kontakt | ochrana údajov | inzercia
Copyright © Pavol Bacigál, 2000-2017. Všetky práva vyhradené.
TOPlist