Filmová Hudba Cz

piesne (376)

  texty (323) / preklady (3)
  akordy (229) / taby (15)
  noty (8) / slideshow (0)

články (99)
fotogaléria
diskusia
videá
diskografia
v obchode
odkazy
koncerty
sťahuj



pridaj vlastný článok

Filmová Hudba Cz:
stáhnutí mp3 Olda Rypar Sun - Ahoj.Tu mp3 najdeš na stránkách moje mp3,je tam jednoduchá registrace,akorát je nutno uda...


Film:
Soundtrack k filmu Mamma Mia Má nomináciu Grammy! - SOUNDTRACK K FILMU MAMMA MIA MÁ NOMINÁCIU GRAMMY! Soundtrack k filmu MAMMA MIA! bol n...


Filmová Hudba Cz:
Tomáš Klus připravuje hudbu k filmu Anglické Jahody - TOMÁŠ KLUS připravuje hudbu k filmu ANGLICKÉ JAHODY 23. 8. ve 14.35 na ČT1 : Film o... - sony bmg


Filmová Hudba Cz:
Vypočujte si vynikajúce CD: "Movie and Fairy Tale Melodies"


Filmová Hudba Cz:
CD Kolekce hitů z českých filmů skladom!


Druhá Tráva:
Soundrack k filmu PUSINKY - Nastupující česká hudební generace na soundtracku navazujícím v tom nejlepším na tr... - sony bmg


Lucie Bílá:
Various – TV Hity z TV seriálov a filmov - server.sk


Filmová Hudba Cz:
Když soundtrack dělá prachy - musicserver.cz


Filmová Hudba Cz:
Nové 2CD s filmovymi hitmi


Lenka Dusilová:
Soundtrack - Všechno nejlepší - musiczone.cz


 

Filmová Hudba Cz

Fanúšikov: 8



A B C Č D E F G H CH I J K L Ľ M N O P Q R S Š T U V W X Y Z Ž



ako:
Filmová Hudba Cz - Občanský průkaz - Obut a oblečen (acustic
Filmová Hudba Cz - Občanský průkaz - Obut a oblečen (acustic

tlač

edituj
Pesničku videlo 5614 návštevníkov.

Kvalita tabov : bez hodnotenia
Hodnotilo ľudí: 0 ohodnoť aj ty
Prispievateľ:

hippies
E:--------------------------------------------------------0-0-----
H:--------0-------------0--------------0------------0---------0---
G:------2----2--------4----4---------6----6-----------------------
D:----2-------------4----------4---6----------6---4---------------
A:--0----------0--2----------2---4----------4---2-----2/7---------
E:----------------------------------------------------------------

E:--------------------------------------------------------0-0-----
H:--------0-------------0--------------0------------0---------0---
G:------2----2--------4----4---------6----6-----------------------
D:----2-------------4----------4---6----------6---4---------------
A:--0----------0--2----------2---4----------4---2-----2/7---------
E:----------------------------------------------------------------

E:--------------------------0---------------------------0---------
H:------------------------0---0-------------------------0---------
H:----------------------1-------1---------------------1-1---------
D:-------0-----0------2----------------0-----0------2-------------
A:-----2-----0------2----------------2-----0------2---------------
E:--3------2-----0----------------3------2-----0------------------

E:----------------------------------------------------0-----------
H:------------------------3/5-5-----------------------0-----------
H:----------------------1---------------------------1-------------
D:-------0-----0------2--------------0-----0------2---------------
A:-----2-----0------2--------------2-----0------2-----------------
E:--3------2-----0--------------3------2-----0--------------------

 
»
Tvoje obľúbené položky
Tvoje obľúbené položky

»
Najnovšie videá
Najnovšie videá

Chyby ve filmech- COPAK JE TO ZA VOJÁKA

Národ snílků CZ Dabing [Celý Film]

Obut a oblečen (Obanský průkaz)

Ľubos

Zobani (Celý film CZ)

Občanský Průkaz - Petr Ostrouchov
»
Najnavštevovanejšie piesne
Najnavštevovanejšie piesne



home | interpreti | register piesní | cd & dvd shop | pripomienky/nápady | kontakt | ochrana údajov | inzercia
Copyright © Pavol Bacigál, 2000-2017. Všetky práva vyhradené.
TOPlist