Billy Barman

piesne (34)

  texty (27) / preklady (0)
  akordy (10) / taby (3)
  noty (0) / slideshow (0)

články (54)
fotogaléria
diskusia
videá
diskografia
v obchode
odkazy
koncerty
sťahuj



pridaj vlastný článok

Billy Barman:
KATARZIA A BILLY BARMAN IDÚ NA VEĽKÝ ČÍNSKY TOUR - ZAHRAJÚ V DVANÁSTICH MESTÁCH NA SLOVENSKU AJ V ČECHÁCH Vydali jedny z najlepších album... - A.Cerevka


Billy Barman:
KATARZIA A BILLY BARMAN IDÚ NA VEĽKÝ ČÍNSKY TOUR. ZAHRAJÚ V DVANÁSTICH MESTÁCH
NA SLOVENSKU AJ V ČECHÁCH
- Vydali jedny z najlepších albumov minulého roka a patria v súčasnosti k najobľúbenejším... - Slnko Records


Billy Barman:
Kapela Billy Barman vydala svoj najosobnejší album Dýchajúce obrazy - Kapela Billy Barman vydala svoj najosobnejší album Dýchajúce obrazy ... - ahudba.sk


Billy Barman:
Barbakan festival tento rok s Billy Barman, Parou a niekoľkými novinkami - ... - livemusic.sk


Billy Barman:
Banskobystrický Festival Barbakan aj s Billy Barman, Parou a niekoľkými
novinkami
- Banskobystrický Festival Barbakan aj s Billy Barman, Parou a niekoľkými novinkami ... - ahudba.sk


Billy Barman:
Na Pohoda Dni_FM okrem viacerých noviniek aj Lola Marsh a Billy Barman - Na Pohoda Dni_FM okrem viacerých noviniek aj Lola Marsh a Billy Barman ... - ahudba.sk


Billy Barman:
Billy Barman míří do Čech! V březnu zahrají v Praze a Brně, v květnu ve
Valašském Meziřící
- 16 Březen 2016 Pavla Hartmanová Žádné komentáře Novinky Slovenští Billy Barman míří... - rockandpop.cz


Billy Barman:
Ceny Radio_Head Awards sú rozdané, pozrite si víťazov - Hlavné kategórie Album roka 2015 Chiki liki tu-a – Slzy tvý mámy, Šedivý a spol. [PAN... - ahudba.sk


:
Slovenská jazzová scéna pozýva na jesenný One Day Jazz Fest 2015 - Slovenská jazzová scéna pozýva na jesenný One Day Jazz Fest 2015 ... - ahudba.sk


Billy Barman:
Mladým chýba vojna. Nový videoklip a singel z pripravovaného albumu skupiny
Billy Barman
- Mladým chýba vojna. Nový videoklip a singel z pripravovaného albumu skupiny Billy Barman ... - ahudba.sk


 

Billy Barman

Fanúšikov: 9



A B C Č D E F G H CH I J K L Ľ M N O P Q R S Š T U V W X Y Z Ž



ako:
Billy Barman - Orbit
Billy Barman - Orbit

tlač

edituj
Rok vzniku: 2010
Pesničku videlo 2163 návštevníkov.

Kvalita tabov : bez hodnotenia
Hodnotilo ľudí: 0 ohodnoť aj ty
Prispievateľ:

Mofo
  *** Autor textu: Billy *** Autor hudby: Billy Barman ft. Haf
INTRO

e----------------------------------------------------------------------

h----------------------------------------------------------------------

g----------------------------------------------------------------------

d-----6--5--4--2----2----------------2--4------------------------------

a---4--4--4------4-----4---4---4--4--------------------3X--------------

E----------------------------------------------------------------------

VERSE

e----------------------------------------------------------------------

h----------------------------------------------------------------------

g----8-6----------5-3----------4-4----------3-3------------------------

d----------------------------------------------------------------------

a----6-6-6-6-6-6--3-3-3-3-3-3--2-2-2-2-2-2--1-1-1-1-1-1-------2X-------

E----------------------------------------------------------------------

CHORUS

e-----------------------------------------------------------------------------

h-----------------------------------------------------------------------------

g---5-5-5-5-5-5-5-5-----------------------------------------------------------

d---5-5-5-5-5-5-5-5---5-5-5-5-5-5-5-5---6-6-6-6-6-6-6-6---8-8-8-8-8-8-8-8-----

a---3-3-3-3-3-3-3-3---5-5-5-5-5-5-5-5---6-6-6-6-6-6-6-6---8-8-8-8-8-8-8-8--2X-

E---------------------3-3-3-3-3-3-3-3---4-4-4-4-4-4-4-4---6-6-6-6-6-6-6-6-----

SOLO

e-------------------------------------------------------------------------

h-------------------------------------------------------------------------

g-------------------------------------------------------------------------

d-------------------------------------------------------------------------

a---3-3-3-3-3-3-3-3-3-3-3-3-3-3-3-3-3-3-3-3-3-3-3-3-3-3-3-3-3-3-3-3-3-3-3-

E-------------------------------------------------------------------------


e---------------------3--6--5--3--3--3--3----------------------------

h----8\6--6--6--6--6-----------3--3--3--3----------------------------

g--------------------------------------------------------------------

d---------------------------------------------------------------------

a---------------------------------------------------------------------

E---------------------------------------------------------------------


e---15-15-15-15-15-15-15-15--15-15-15-15-15-15-15-15--16-16-16-16-16-16-16-16--

h---17-17-17-17-17-17-17-17--15-15-15-15-15-15-15-15--16-16-16-16-16-16-16-16--


e---18-18-18-18-18-18-18-18-------

h---18-18-18-18-18-18-18-18---4X--




 
»
Tvoje obľúbené položky
Tvoje obľúbené položky
»
Nové albumy interpreta
Nové albumy interpreta
CD Billy Barman Modry jazyk
CD Modry jazyk
CD Billy Barman Nocni jazdci
CD Nocni jazdci
CD Billy Barman Nocni jazdci
CD Nocni jazdci

»
Najnovšie videá
Najnovšie videá

Billy Barman - Orbit

Billy Barman - Orbit

Billy Barman feat. Hafner - Orbit (live

Hafner, Scooter, Beastie boys, Billy Bar

Billy Barman & Haf - Orbit

Billy Barman - Orbit
»
Najnavštevovanejšie piesne
Najnavštevovanejšie piesne
Vrkoče - akordy a text

Mladým chýba vojna - akordy

Strmá voda - akordy a text

Traja - text

Na Laze Oremovom - akordy a text

Strmá voda - text

Traja - akordy

Introvert - text

Cigánska - text

Cigánska - akordy a text

viac




home | interpreti | register piesní | cd & dvd shop | pripomienky/nápady | kontakt | ochrana údajov | inzercia
Copyright © Pavol Bacigál, 2000-2017. Všetky práva vyhradené.
TOPlist