Načo Názov

piesne (117)

  texty (83) / preklady (0)
  akordy (31) / taby (18)
  noty (0) / slideshow (0)

články (13)
fotogaléria
diskusia
videá
diskografia
v obchode
odkazy
koncerty
sťahuj



pridaj vlastný článok

Fuera Fondo:
Festival Punkáči deťom zverejnil už 31 interpretov 5. ročníka - Organizátori festivalu Punkáči deťom zverejnili už 31 interpretov 5. ročníka podujatia. ...


Načo Názov:
Jen do nich! - musicserver.cz


Alone:
Topfest o jeden deň dlší! - Najväčší slovenský rockový festival pridáva v roku 2010 okrem priestoru aj tzv.nultý deň,...


Alone:
TOPFEST 2010 AJ S CAVALEROU CONSPIRACY A TANEČNOU SCÉNOU! - TOPFEST 2010 AJ S CAVALEROU CONSPIRACY A TANEČNOU SCÉNOU! Prvý letný prázdninový víken...


Behemoth:
Modra v sobotu po prvý raz hudobne „zakvasí“! - Bleskovky - Kultura


Behemoth:
Metroclub Stage posilňuje nočný program tanečnej scény výbornými DJ-mi - Festival Minikvas ponúka dovolenku za skvelú cenu! MODRA – Kde sú tie časy, keď sa na le...


Cenzúra:
Punkáči deťom, Brezová pod Bradlom - musiczone.cz


Arakain:
Púchov: Festival Rockové mrazenie 2007 vyplní večer v športovej hale - sme.sk - hudba


Arakain:
Rockové mrazenie 2007 vyplní večer v športovej hale - Rockové mrazenie 2007 vyplní večer v športovej hale Púchov 30. novembra (TASR) - Štvrt...


Arakain:
V rámci Rockového mrazenia 2007 vystúpi aj Nazareth - sme.sk - hudba


 

Načo Názov

Fanúšikov: 11



A B C Č D E F G H CH I J K L Ľ M N O P Q R S Š T U V W X Y Z Ž



ako:
Načo Názov - Posledný krát
Načo Názov - Posledný krát

tlač

edituj
Rok vzniku: 1995
Pesničku videlo 2491 návštevníkov.

Kvalita tabov : bez hodnotenia
Hodnotilo ľudí: 0 ohodnoť aj ty
Prispievateľ:

romhead
  *** Autor textu: Načo názov *** Autor hudby: Načo názov
Intro
E--5~-5--8~-10-8-7~-7-8-7~-8~-7-

E--5~-5--8~-10-12-10~-8~-7-

Sloha
A--7~-7-7-7-7-7-7--10~-12-10-9~-9-9-9-9-9-9--9--10-9--
E--5~-5-5-5-5-5-5--8~--10-8--7~-7-7-7-7-7-7--7~-8--7--

A--7~-7-7-7-7-7-7--10~-12-14-12~-12-12-12-12-12-12-10-8~-8-8-8-8-8-8--
E--5~-5-5-5-5-5-5--8~--10-12-10~-10-10-10-10-10-10-8--7~-7-7-7-7-7-7--

Tak už skončila sa moja púť
D--7-7-7-7---------------------------
A--5-5-5-5--7-7-7-7-5-5-5-5-5-5-5-5--
E-----------5-5-5-5-3-3-3-3-3-3-3-3--

Posledný krát (tlmene)
D--7-7-7-7--------------------------
A--5-5-5-5-9-9-9-9-5-5-5-5-7-7-7-7--
E----------7-7-7-7-3-3-3-3-5-5-5-5--

A sólo
H----------7---------------------
G--7~-9-7~---9-7~--7~-9-7-6~-----
D----------------------------7~--

H----------7---------------------
G--7~-9-7~---9-7~--7~-9-7-7~-6~--

 
»
Tvoje obľúbené položky
Tvoje obľúbené položky
»
Nové albumy interpreta
Nové albumy interpreta
CD Naco Nazov Komu ze je lepsie
CD Komu ze je
lepsie
CD Naco Nazov Krok od zaniku
CD Krok od zaniku

»
Najnovšie videá
Najnovšie videá

Naco Nazov - Manana

Načo Názov - Vlkodlaci

Načo Názov - Čierny šerifovia

Načo Názov - Ja sa nepoddám !

Načo Názov - Proti Vetru

Načo Názov - Horúca Realita
»
Najnavštevovanejšie piesne
Najnavštevovanejšie piesne
Neďaleko od Trenčína - text

Vadí, Nevadí - akordy a text

Hrob a kriz - akordy

Neďaleko od Trenčína - akordy a text

Titanic - akordy a text

STATUS QUO - akordy a text

Načo Názov - akordy a text

Komu že je lepšie - text

Neďaleko od Trenčína - taby

Proti vetru II - taby

viac




home | interpreti | register piesní | cd & dvd shop | pripomienky/nápady | kontakt | ochrana údajov | inzercia
Copyright © Pavol Bacigál, 2000-2017. Všetky práva vyhradené.
TOPlist