Dimenzia X

piesne (43)

  texty (28) / preklady (0)
  akordy (13) / taby (4)
  noty (0) / slideshow (0)

články (1)
fotogaléria
diskusia
videá
diskografia
v obchode
odkazy
koncerty
sťahuj



pridaj vlastný článok

Cenzúra:
Punkáči deťom, Brezová pod Bradlom - musiczone.cz


 

Dimenzia X

Fanúšikov: 1



A B C Č D E F G H CH I J K L Ľ M N O P Q R S Š T U V W X Y Z Ž



ako:
Dimenzia X - Depresia
Dimenzia X - Depresia

tlač

edituj
Rok vzniku: 2009
Pesničku videlo 1823 návštevníkov.

Kvalita tabov : bez hodnotenia
Hodnotilo ľudí: 0 ohodnoť aj ty
Prispievateľ:

romhead
  *** Autor textu: Dimenzia X *** Autor hudby: Dimenzia X
G--4--
D--4--
A--2--

Sloha
G--5-5-5-5--7-7-9-9--5-5-5-5--4-4-----
D--5-5-5-5--7-7-9-9--5-5-5-5--4-4-2-2-
A--3-3-3-3--5-5-7-7--3-3-3-3--2-2-2-2-
E---------------------------------0-0-

Refrén
G-----------7-7-----------------------------
D--5-5-5-5--7-7-7-7--9-9x-9x-9x-9x-9x-9x-9x-
A--5-5-5-5--5-5-5-5--9-9x-9x-9x-9x-9x-9x-9x-
E--3-3-3-3------5-5--7-7x-7x-7x-7x-7x-7x-7x-

V pozadí pri slohe
H--------5-------5-------5-----5~--
G--5-5-7---4-4-7---5-5-7---4-4-----

H------5-------5-----5-------5-----
G--5-7---5-7-7---5-7---5-4-4-------

 
»
Tvoje obľúbené položky
Tvoje obľúbené položky
»
Nové albumy interpreta
Nové albumy interpreta

»
Najnovšie videá
Najnovšie videá

Dimenzia X - Hitlerové deti

Dimenzia X - Čistá lož

Dimenzia X - V mene vlasti.

Dimenzia X - Iný svet

Dimenzia X - Mururoa

Dimenzia x trvala sloboda
»
Najnavštevovanejšie piesne
Najnavštevovanejšie piesne



home | interpreti | register piesní | cd & dvd shop | pripomienky/nápady | kontakt | ochrana údajov | inzercia
Copyright © Pavol Bacigál, 2000-2017. Všetky práva vyhradené.
TOPlist