Helenine Oči

piesne (98)

  texty (82) / preklady (0)
  akordy (40) / taby (10)
  noty (0) / slideshow (0)

články (22)
fotogaléria
diskusia
videá
diskografia
v obchode
odkazy
koncerty
sťahuj



pridaj vlastný článok

Helenine Oči:
Heľenine Oči v punkovej skladbe nakladajú politikom - Heľenine Oči v punkovej skladbe nakladajú politikom ... - ahudba.sk


Helenine Oči:
Video: Heľenine Oči si robia srandu z politikov a myslia to vážne! - ... - livemusic.sk


Helenine Oči:
Heľenine oči vyrazia na akustické turné - ... - korzar.sme.sk


Helenine Oči:
Heľenine Oči idú na akustické turné ŠTÚR TÚR 1815 - ... - livemusic.sk


Helenine Oči:
Heľenine Oči sa tešia na prešovskú úderku na DrinkIn Festivale - Heľenine Oči sa tešia na prešovskú úderku na DrinkIn Festivale ... - ahudba.sk


Helenine Oči:
Helenine oči: BUBENÍK SA NÁM OŽENIL - POZOR!!!! BUBENÍK SA NÁM OŽENIL :D A kedže je to člen.. ako inak za ženu si vzal Helenku ... - hel.sk


Helenine Oči:
Heľenine oči: Krst CD Mimozemšťanie - ... - frenky.sk


Back2love:
Dobrý festival už oddnes v prešovskom amfiteátri. Prídu Nagy, Lipa aj Šeban - 21.6.2013 13:00 SITA PREŠOV - V Prešove sa 21. a 22. júna uskutoční siedmy roční... - atlas.sk


Helenine Oči:
Heľenine oči vydali skladbu Plavčík Milan ako singel - Prešovská skupina Heľenine oči sa rozhodla po minuloročnom koncertnom úspechu skladby Pla...


Back2love:
Na Dobrom festivale bude tanečný stan pre vyše tisíc ľudí - Nočná houseová párty dídžejov Back2Love sa skončí až východom slnka. BRATISLAVA 16. febr...


 

Helenine Oči

Fanúšikov: 29



A B C Č D E F G H CH I J K L Ľ M N O P Q R S Š T U V W X Y Z Ž



ako:
Helenine Oči - Slivovica
Helenine Oči - Slivovica

tlač

edituj
Pesničku videlo 2177 návštevníkov.

Kvalita tabov : bez hodnotenia
Hodnotilo ľudí: 0 ohodnoť aj ty
Prispievateľ:

Papouch
Hrá sa to v C dure:

Intro:

1.Časť
(Barový C dur)
E|-----5--7--8------5--7---------5----------------------------8-------8---
H|--8-----------------------8---------6----8----6--5----------8-------8---
G|----------------------------------------------------7--5----9-------9---
D|------------------------------------------------------------10------10--
A|------------------------------------------------------------10------10--
E|------------------------------------------------------------8-------8---

E|-----5--8--11--10--8--10--8--
H|--8--------------------------
G|-----------------------------
D|-----------------------------
A|-----------------------------
E|-----------------------------

akord C môžete hrať iba na strunách E, H, G (alebo ako vám je dobré..)lebo sa to dosť ťažko hrá...

2. Časť

E|--8----5--7---------5-----------------------------5--8----
H|---------------8---------6----8----6--5--------8----------
G|-----------------------------------------7--5-------------
D|----------------------------------------------------------
A|----------------------------------------------------------
E|----------------------------------------------------------


E|-----5--8-------5--8--11--10--8--10--8--
H|--8----------8--------------------------
G|----------------------------------------
D|----------------------------------------
A|----------------------------------------
E|----------------------------------------

Potom sa zopakuje 2. Časť a na konci obe...
Akordy už sú upnuté tak have fun...

 
»
Tvoje obľúbené položky
Tvoje obľúbené položky
»
Nové albumy interpreta
Nové albumy interpreta

»
Najnovšie videá
Najnovšie videá

Helenine Oči - Slivovica

Helenine oči - Slivovica

Heľenine Oči - Slivovica @ Hell Drift Ra

Helenine Oči - Nina / Slivovica @ Bardej

14. - 15.08.2009 - Miss Domaša, Nová Kel

Heľenine Oči - 25.10.2013 - Collosseum M
»
Najnavštevovanejšie piesne
Najnavštevovanejšie piesne
Mestská polícia - [BASS] - taby

Mariana - akordy a text

Jahody - akordy a text

Hoja hop - text

Trim ho - akordy a text

Marianna - text

Domina - akordy a text

Hoja Hop - akordy a text

Plavčík Milan - akordy

Jahody - akordy

viac




home | interpreti | register piesní | cd & dvd shop | pripomienky/nápady | kontakt | ochrana údajov | inzercia
Copyright © Pavol Bacigál, 2000-2017. Všetky práva vyhradené.
TOPlist