Visací Zámek

piesne (150)

  texty (115) / preklady (0)
  akordy (105) / taby (21)
  noty (1) / slideshow (0)

články (71)
fotogaléria
diskusia
videá
diskografia
v obchode
odkazy
koncerty
sťahuj



pridaj vlastný článok

Abraxas:
Votvírák – s novou vlnou předprodeje připlouvá i Pavol Habera & Team - 8 Duben 2017 David Nguyen Žádné komentáře Novinky Votvírák – s novou vlnou... - rockandpop.cz


Visací Zámek:
Punková událost roku! Visací Zámek & Johny Rotten! - 11 Květen 2016 David Nguyen Žádné komentáře Novinky Punková událost roku! V... - rockandpop.cz


Visací Zámek:
Visací zámek a Záviš rozezpívali Šeříkovku - Vydáno 2016-04-03 13:27:24 Facebook12 Twitter0 Google+0 "Kombinace modré krve Visac... - ireport.cz


Atmo Music:
Okoř se šťávou představuje program: Vystoupí Slza, ATMO Music, Rybičky
48, UDG, Voxel, Wohnout i Visací zámek
- Vydáno před 22 hodinami | autor: redakce Facebook368 Twitter0 Google+0 Už 18. roč... - ireport.cz


Visací Zámek:
Visací zámek a Vypsaná fiXa si poprvé střihnou společné turné - Visací zámek a Vypsaná fiXa si poprvé střihnou společné turné];" style="display: ... - IREPORT


Totální Nasazení:
Valník přivítá Visací zámek, Totální nasazení i Zakázaný ovoce - Valník přivítá Visací zámek, Totální nasazení i Zakázaný ovoce];" style="displ... - IREPORT


Inekafe:
Kolínský Natruc letos přivítá Inekafe, Tata Bojs i Visací zámek - ... - IREPORT


Visací Zámek:
Visací zámek vydává ke svým třicetinám knihu a masivní kompilaci hitů - musicserv... - musicserver.cz


E!e:
THE FIALKY si nadělí k 13ti letům sedmipalec a koncerty s Visáčema nebo
Radio Dead Ones
- The Fialky odehráli za loňský rok nejvíce koncertů ve své historii. Ať už přij... - phr.cz


Visací Zámek:
Visací zámek uviedol videoklip PREZIDENT - Prezident je buzna: Fotky z natáčania: http://www. visaci.cz/fotky.php?g2_it emId... - visaci.cz


 

Visací Zámek

Fanúšikov: 28



A B C Č D E F G H CH I J K L Ľ M N O P Q R S Š T U V W X Y Z Ž



ako:
Visací Zámek - 50 - Padesát
Visací Zámek - 50 - Padesát

tlač

edituj
Pesničku videlo 5295 návštevníkov.

Kvalita tabov : bez hodnotenia
Hodnotilo ľudí: 0 ohodnoť aj ty
Prispievateľ:

Pedro
  *** Autor textu: Visaci *** Autor hudby: Vasaci
Zacatek -> 4x

E------------------------------------

H------------------------------------

G------------------------------------

D--5---5555----5---5555----5---5555-------8-7-8-7--

A--5---5555----5---5555----5---5555-------8-7-8-7--

E--3---3333----3---3333----3---3333-------6-5-6-5--

Sloka:


D--555-888---77-8-7-5-----888-101010--121212-13-12-----555-888---77-8-7-5

A--555-888---77-8-7-5-----888-101010--121212-13-12-----555-888---77-8-7-5

E--333-666---55-6-5-3-----666-8-8-8---101010-11-10-----333-666---55-6-5-3



Refren:


2x

G------77-55-77----------------

D--55--77-55-77---5-88-77-5----

A--55--55-33-55---5-88-77-5----

E--33-------------3-66-55-3----



Mezihra:

D--5----5----5--5--5

A--5----5----5--5--5

E--3----3----3--3--3




K****drat, padesat :


myslim ze 3x

G--5-555--5-555--5-555--5-555-------------------------------

D--5-555--5-555--5-555--5-555----5-555--5-555--5-555--5-555-

A--3-333--3-333--3-333--3-333----5-555--5-555--5-555--5-555-

E--------------------------------3-333--3-333--3-333--3-333-


a posledni K****drat je takhle


D--10-10.10.10----10-10.10.10----10-10.10.10---10-10.10.10.---13-13.13.13---13-13.13.13

A--10-10.10.10----10-10.10.10----10-10.10.10---10-10.10.10.---13-13.13.13---13-13.13.13

E--8---8-8-8------8---8-8-8------8---8-8-8-----8---8-8-8------11-11.11.11---11-11.11.11


a pak sjedete na 3. prazec ;-D.


!!!!! ENJOY !!!!!




 
»
Tvoje obľúbené položky
Tvoje obľúbené položky
»
Nové albumy interpreta
Nové albumy interpreta
6
CD Visaci Zamek Punkovy kralovstvi
CD Punkovy
kralovstvi
3xCD Visaci Zamek Platinum collection
3xCD Platinum
collection
2xCD Visaci Zamek Atentat na kulturu
2xCD Atentat na
kulturu
17xCD+DVD Visaci Zamek Box
17xCD+DVD Box
CD Visaci Zamek Klasika
CD Klasika
2xCD+DVD Visaci Zamek 25 let
2xCD+DVD 25 let

»
Najnovšie videá
Najnovšie videá

Visac zmek - Znmka punku

Visac Zmek Traktor

Visac zmek - Krom - incident na p

Visac zmek - Noviny

Visac Zmek - Strategick stup

Visac zmek - Stnek
»
Najnavštevovanejšie piesne
Najnavštevovanejšie piesne
Známka punku - akordy a text

Traktor - akordy a text

Traktor lehce - akordy a text

Známka punku (nádhera) - akordy a text

Traktor - taby

Padesát - akordy a text

Známka punku - taby

Známka Punku ( i s textem!! ) - akordy a text

Pop song BASS - taby

Rezavý fáro BASS - taby

Žulový vůl BASS - taby

RŮŽOVEJ POCIT BASS - taby

Traktor - akordy a text

ZNAMKA PUNKU - akordy

Cigára - akordy a text

Pitomá - akordy a text

50 - Padesát - taby

Visací Zámek - Hra s dámou BASS - taby

Temelín - akordy a text

Známka Punku- Bakytara (celá) - taby

viac




home | interpreti | register piesní | cd & dvd shop | pripomienky/nápady | kontakt | ochrana údajov | inzercia

TOPlist