Xindl X

piesne (106)

  texty (78) / preklady (0)
  akordy (49) / taby (16)
  noty (0) / slideshow (0)

články (93)
fotogaléria
diskusia
videá
diskografia
v obchode
odkazy
koncerty
sťahuj



pridaj vlastný článok

Xindl X:
Multimilionář XINDL X za dva týdny vyráží na turné. - První dva pražské koncerty jsou již vyprodané! V Bratislavě zahraje 5. & 6. dubna, v Nové... - Turner


Xindl X:
Xindl X vyrazí na turné s kapelou i jen s kytarou - Xindl X vyrazí na turné s kapelou i jen s kytarou Autor: Iva Boková 01.11.2016 Tisk ... - abradio.cz


Xindl X:
XINDL X príde po prvýkrát s celou kapelou na Slovensko. - XINDL X na Slovensku hrá veľmi rád. A slovenskí fanúšikovia si to uvedomujú. Posledné rok... - M.Kucera


Xindl X:
Xindl X sa vracia na slovenské turné a ty môžeš vyhrať 3×2 vstupenky! - 4. októbra 2016 marekmuzika 8 Comments Xindl X vo svojich pesničkách často a rád provok... - music-zone.eu


Xindl X:
Xindl X: Forma oligarchie může být stejně nebezpečná jako komunismus - Písničkář Xindl X (37) přichází s novým albem. Jmenuje se Kvadratura záchranného kruhu a ... - novinky.cz


Xindl X:
Xindl X interview: V Česku se úspěch neodpouští, proto jsem napsal píseň o
poměřování pindíků
- Vydáno před 19 hodinami | autor: Jaroslav Noska Na nové desce Kvadratura záchranné... - ireport.cz


Shawn Mendes:
Nová alba: Xindl X, Shawn Mendes, Tři sestry či The Fellas - Blíží se konec roku a alba umělců výrazných jmen přicházejí na trh. V tomto týdnu upozorň...


Xindl X:
Xindl X upevňuje albem "Kvadratura záchranného kruhu" svoji pozici - Vydáno: 23.09.2016 09:00 v sekci Recenze - Milan Menčík Xindl X si na domácí hudební scé... - musicserver.cz


Xindl X:
RECENZE: Xindl X hází topícím se lidem záchranný kruh - Vydáno 23.09.2016 | autor: Hana Poláchová Páté studiové album Xindla X obsahuje de... - ireport.cz


Udg:
Během koncertu s Xindlem X a Voxelem pokřtili UDG své CD - Klatovy /FOTOGALERIE/ – Fanoušci Xindla X, Voxela a skupiny UDG si v sobotu přišli na své... - denik.cz


 

Xindl X

Fanúšikov: 24



A B C Č D E F G H CH I J K L Ľ M N O P Q R S Š T U V W X Y Z Ž



ako:
Xindl X - Píseň Davidova
Xindl X - Píseň Davidova

tlač

edituj
Poznámka: album Lá$ka (2012)
Připomínky: septikb@seznam.cz


Pesničku videlo 2505 návštevníkov.

Kvalita tabov : bez hodnotenia
Hodnotilo ľudí: 0 ohodnoť aj ty
Prispievateľ:

septik
INTRO
C C/H Ami G D9/F# Gsus4 G
e|---3-3-3-3-1-0---|---0-0-0-0-------|-----------------|-----------------|
h|---1-1-1-------3-|-1---------3-2-1-|-------1---------|-0---1---3---0---|
g|---0-0-0---------|-2---------------|-2--------2------|-0---0---0---0---|
d|-----------------|-2---------------|-----0------0----|---0---0---0---0-|
A|-3-------2-------|-0---------------|-----------------|-----------------|
E|-----------------|---------3-------|-2---------------|-3---------------|

REFREN
F C F C
e|-----1-1-----1-1-|-----0-0-----0-0-|-----1-1-----1-1-|-----------------|
h|-----1-1-----1-1-|-----1-1-----1-1-|-----1-1-----1-1-|-----------------|
g|-----2-2-----2-2-|-----0-0-----0-0-|-----2-2-----2-2-|---------0-------|
d|-----2-2-----2-2-|-----------------|-----2-2-----2-2-|-----222---2-----|
A|-----------------|-3-3-----3-3-----|-----2-2-----2-2-|-3-3---------3---|
E|-1-1-----1-1-----|-----------------|-1-1-----1-1-----|---------------3-|

F C F G
e|-----1-1-----1-1-|-----0-0-----0-0-|-----1-1-----1-1-|-----3-3---3-----|
h|-----1-1-----1-1-|-----1-1-----1-1-|-----1-1-----1-1-|-----3-3---3-----|
g|-----2-2-----2-2-|-----0-0-----0-0-|-----2-2-----2-2-|-----0-0---0-----|
d|-----2-2-----2-2-|-----------------|-----2-2-----2-2-|-----------------|
A|-----------------|-3-3-----3-3-----|-----2-2-----2-2-|-----------------|
E|-1-1-----1-1-----|-----------------|-1-1-----1-1-----|-3-3-----3-------|

 
»
Tvoje obľúbené položky
Tvoje obľúbené položky
»
Nové albumy interpreta
Nové albumy interpreta
CD Xindl-x Kvadratura zachranneho kruhu
CD Kvadratura
zachranneho
kruhu
5xCD Gott Karel Duety
5xCD Duety
2xCD Xindl-x Cechacek made
2xCD Cechacek made
2xCD+DVD Xindl X G2 acoustic stage/dvd
2xCD+DVD G2 acoustic
stage/dvd
2xCD+DVD Kryl Karel Karel kryl 70 - koncert - prazska lucern
2xCD+DVD Karel kryl 70 -
koncert -
prazska lucern
CD Xindl X Laska
CD Laska

»
Najnovšie videá
Najnovšie videá

Xindl X - Píseň Davidova

EDDIE STOILOW feat. Xindl X - ELITA - ma

Xindl X - Casio

Xindl X - Casio + text

Xindl X - Kluci na plakátě

Xindl X - Chemie (oficiální videoklip)
»
Najnavštevovanejšie piesne
Najnavštevovanejšie piesne
Popelka - akordy a text

V blbým věku - akordy a text

Cudzinka v tvojej zemi - akordy a text

V blbým věku - akordy a text

Na vodě - akordy

Barbína - akordy a text

Anděl - akordy a text

V blbým věku - text

Štědrý večer nastal - akordy a text

Chemie - akordy a text

viac




home | interpreti | register piesní | cd & dvd shop | pripomienky/nápady | kontakt | ochrana údajov | inzercia
Copyright © Pavol Bacigál, 2000-2017. Všetky práva vyhradené.
TOPlist